Song Information for Ka-Boom Ka-Boom

Song Title:Ka-Boom Ka-Boom
Artist:Marilyn Manson
Hits:18
{t:Ka-Boom Ka-Boom}
 {st:Marilyn Manson}
 
 Ka-Boom Ka-Boom - Marilyn Manson
 Tabbed by Tinboy
 
 Tuning - Drop D
 
 [E] [B] [G] [D] [A] [D] 
 Intro
 
 
 {sot}
 |------------------------------------------------------------------------|
 |------------------------------------------------------------------------|
 |------------------------------------------------------------------------|
 |---10p9--9--9---9-x-9-x--9-10p9--9-9--9-7-------------------------------| x4
 |---10p9--9--9---9-x-9-x--9-10p9--9-9--9-7-------------------------------|
 |---10p9--9--9---9-x-9-x--9-10p9--9-9--9-7-------------------------------|
 {eot}
 
 Pre-Chorus - "I won't do it with you, I'll do it to you"
 
 
 {sot}
 |------------------------------------------------------------------------|
 |------------------------------------------------------------------------|
 |------------------------------------------------------------------------|
 |---9-9--\--3-3--/--4-4--\-----------------------------------------------| x4
 |---x-x--\--x-x--/--x-x--\-----------------------------------------------|
 |---9-9--\--3-3--/--4-4--\-----------------------------------------------|
 {eot}
 
 Chorus - "I like a big car, 'cuz I'm a big star"
 
 
 {sot}
 |------------------------------------------------------------------------|
 |------------------------------------------------------------------------|
 |------------------------------------------------------------------------|
 |--9-9-9-9-9-9-9-9--12-12-12-12-5-5-5-5--4-4-4-4-4-4-4-4-4-4-4-4-4-4-4-4-| x2
 |--9-9-9-9-9-9-9-9--12-12-12-12-5-5-5-5--4-4-4-4-4-4-4-4-4-4-4-4-4-4-4-4-|
 |--9-9-9-9-9-9-9-9--12-12-12-12-5-5-5-5--4-4-4-4-4-4-4-4-4-4-4-4-4-4-4-4-|
 |------------------------------------------------------------------------|
 |------------------------------------------------------------------------|
 |------------------------------------------------------------------------|
 |---10p9--9--9---9-x-9-x--9-10p9--9-9--9-7-------------------------------| x4
 |---10p9--9--9---9-x-9-x--9-10p9--9-9--9-7-------------------------------|
 |---10p9--9--9---9-x-9-x--9-10p9--9-9--9-7-------------------------------|
 {eot}
 
 Pre-Chorus
 
 
 {sot}
 |------------------------------------------------------------------------|
 |------------------------------------------------------------------------|
 |------------------------------------------------------------------------|
 |---9-9--\--3-3--/--4-4--\-----------------------------------------------| x4
 |---x-x--\--x-x--/--x-x--\-----------------------------------------------|
 |---9-9--\--3-3--/--4-4--\-----------------------------------------------|
 {eot}
 
 Chorus
 
 
 {sot}
 |------------------------------------------------------------------------|
 |------------------------------------------------------------------------|
 |------------------------------------------------------------------------|
 |--9-9-9-9-9-9-9-9--12-12-12-12-5-5-5-5--4-4-4-4-4-4-4-4-4-4-4-4-4-4-4-4-| x2
 |--9-9-9-9-9-9-9-9--12-12-12-12-5-5-5-5--4-4-4-4-4-4-4-4-4-4-4-4-4-4-4-4-|
 |--9-9-9-9-9-9-9-9--12-12-12-12-5-5-5-5--4-4-4-4-4-4-4-4-4-4-4-4-4-4-4-4-|
 |------------------------------------------------------------------------|
 |------------------------------------------------------------------------|
 |------------------------------------------------------------------------|
 |---10p9--9--9---9-x-9-x--9-10p9--9-9--9-7-------------------------------| x4
 |---10p9--9--9---9-x-9-x--9-10p9--9-9--9-7-------------------------------|
 |---10p9--9--9---9-x-9-x--9-10p9--9-9--9-7-------------------------------|
 {eot}
 
 Bridge - "Inhale, exhale lets all hail"
 
 
 {sot}
 |------------------------------------------------------------------------|
 |------------------------------------------------------------------------|
 |------------------------------------------------------------------------|
 |------------------------------------------------------------------------|
 |------------------------------------------------------------------------|
 |---9-9-9-9-9-9-9-9---3v-------------------------------------------------|
 {eot}
 
 Chorus
 
 
 {sot}
 |------------------------------------------------------------------------|
 |------------------------------------------------------------------------|
 |------------------------------------------------------------------------|
 |--9-9-9-9-9-9-9-9--12-12-12-12-5-5-5-5--4-4-4-4-4-4-4-4-4-4-4-4-4-4-4-4-| x4
 |--9-9-9-9-9-9-9-9--12-12-12-12-5-5-5-5--4-4-4-4-4-4-4-4-4-4-4-4-4-4-4-4-|
 |--9-9-9-9-9-9-9-9--12-12-12-12-5-5-5-5--4-4-4-4-4-4-4-4-4-4-4-4-4-4-4-4-|
 {eot}
 
 that's all
 
 email - tinboy50@hotmail.com