Song Information for (It’s Not War) Just the End of Love

Song Title:(It’s Not War) Just the End of Love
Artist:Manic Street Preachers
Hits:83
{t:(It??s Not War) Just the End of Love}
 {st:Manic Street Preachers}
 
 Riff played during the verses:
 
 {sot}
 E|-------------------------------------------------------------|
 B|-------------------------------------------------------------|
 G|---0-----0---------0-----0--------0-----0--------0-----------|
 D|-----4-----4---------4-----4--------4-----4--------4-------0-|
 A|-5-----5-----5---------5-----0-0------0-----0-0------0-0-2---|
 E|---------------3---------------------------------------------|
 {eot}
 
 This riff is played 3 times in each verse (once before lyrics and twice during). Or you can just play
 the chords below!
 
 Intro:
 D C* C C Em D D C* C C Em Am7 G
 
 {sot}
 E|--------------------------------2-----------------------------------------------|
 B|--------------------------------3-----------------------------------------------|
 G|-----2-----2--0--------0-----0--2-------2-----2--0-------0-----2-----0-----0----|
 D|---4-----4----2------2-----2----0-----4-----4----2-----2-----2-----2-----2------|
 A|-5-----3------3----3-----2----------5-----3------3---3-----2-----0--------------|
 E|-----------------------------------------------------------------------3-----2--|
 {eot}
 followed by:
 [D] [G] [A] 
 [A] [G] 
 [Bm] [G] [A] 
 [A] [G] 
 Verse 1:
 [D]To feel forgivene[G]ss, you gotta for[A]give
 [A]Do you see the stars or the darkness begin[D]?
 [D]You fight your [G]war, I fight for my lif[A]e
 [A]You pay your dues, and I'll pay mine
 
 Chorus:
 [D]It's [G]not [A]war, [A]just the end of [G]love
 [Bm]Just l[G]ike b[A]efore, but i[A]t's never e[G]nough
 [F#m]Oh, it's never en[G]ough
 
 Verse 2:
 [D]You fight your w[G]ar, I fight for my l[A]ife
 [A]You pay your dues, and I will pay min[D]e
 [D]To feel forgivene[G]ss, you gotta for[A]give
 [A]It's lost on me, I believe in revenge
 
 Chorus 2:
 [D]It's [G]not [A]war, [A]just the end of [G]love
 [Bm]You've [G]got the [A]looks, but [A]I've got the s[G]cars
 [D]It's [G]not [A]war, [A]just the end of l[G]ove
 [Bm]To feel [G]some tender[A]ness, do you [A]have to give [G]up?
 [F#m]Do you have to give[G] up?
 Oh, [F#m]do you have to give [G]up?
 
 Intro riff (again):
 D C* C C Em D D C* C C Em Am7 G
 
 {sot}
 E|--------------------------------2-----------------------------------------------|
 B|--------------------------------3-----------------------------------------------|
 G|-----2-----2--0--------0-----0--2-------2-----2--0-------0-----2-----0-----0----|
 D|---4-----4----2------2-----2----0-----4-----4----2-----2-----2-----2-----2------|
 A|-5-----3------3----3-----2----------5-----3------3---3-----2-----0--------------|
 E|-----------------------------------------------------------------------3-----2--|
 {eot}
 
 Solo:
 [D] [G] [A] 
 [A] [G] 
 [Bm] [G] [A] 
 [A] [G] 
 Chorus 3:
 [D]It's [G]not [A]war, [A]just the end of [G]love (just the end of)
 [Bm]Just [G]like [A]before but [A]it's never en[G]ough
 [D]It's [G]not [A]war, [A]just the end of l[G]ove
 [Bm]You weather[G]ed the s[A]torm, but [A]sheltered the l[G]oss
 But [F#m]sheltered the l[G]oss
 But [F#m]sheltered the l[G]oss
 
 Coda:
 verse riff twice or:
 D G A (X2)
 D (hold)