Song Information for Peeled Apples

Song Title:Peeled Apples
Artist:Manic Street Preachers
Hits:48
{t:Peeled Apples}
 {st:Manic Street Preachers}
 
 Song: Peeled Apples
 Band: Manic Street Preachers
 Tuning: Standard
 
 This is based on a live acoustic performance by James Dean Bradfield.
 
 Verse 1: Starts with a G then D.
 [Em]The more I see [G] [D] [Em]The less I scream[G][D]
 [Em]The figure eight inside out[G] [D] [Em]Is infinity
 [Am]The naked light bulb is always wrong[G][D]
 [Em]They make your brain complete[G] [D] [Em]then they blow it to kingdom come.
 
 Riff 1:
 
 {sot}
 e|--------------------------------|
 b|--------------------------------|
 g|--9---------9-------------------|
 d|--9---------9-------------------|
 a|--7---7-7---7---7-7-------------|
 e|----------------------12\\\\----|
 {eot}
 
 Chorus:
 [C]Riderless [Am]horses on [G]Chomsky's Camel[Em]ot
 [C]Bruises on [Am]my hands from [G]digging my nails o[Em]ut
 [C]A series of [Am]images aga[G]inst you and me[Em]
 [C]Trespass your[Am] torments if you [G]are what you wann[Em]a be
 
 Riff 1 Variation:
 
 {sot}
 e|----------------------3--2------|
 b|----------------------3--3------|
 g|--9---------9---------0--2------|
 d|--9---------9---------0--0------|
 a|--7---7-7---7---7-7---2---------|
 e|----------------------3---------|
 {eot}
 
 Verse 2:
 [Em]I once impersonated [G] [D] [Em]A shop work dummy[G][D]
 [Em]The levi jean will always [G] [D] [Em]Be stronger than the uzi
 [Am]A dwarf takes his cockrel out of the cockfight[G][D]
 [Em]Falcons attack the pigeons [G] [D] [Em]In the west wing at night
 
 Riff 1
 
 Chorus:
 [C]Riderless [Am]horses on [G]Chomsky's Camel[Em]ot
 [C]Bruises on [Am]my hands from [G]digging my nails o[Em]ut
 [C]A series of [Am]images aga[G]inst you and me[Em]
 [C]Trespass your[Am] torments if you [G]are what you wann[Em]a be
 
 Riff 2: 2x
 
 {sot}
 e|--------------------------------|
 b|--------------------------------|
 g|--9---------9-------------------|
 d|--9---------9-------------------|
 a|--7---7-7---7---7-7-------------|
 e|----------------------3-0-2-0---|
 {eot}