Song Information for Rendition

Song Title:Rendition
Artist:Manic Street Preachers
Hits:49
{t:Rendition}
 {st:Manic Street Preachers}
 
 Not really many updates, there were some problems with alignment before that I've just
 out, to avoid any confusion.
 
 Manic Street Preachers - Rendition (Send Away The Tigers, 2007)
 
 [Intro]
 
 {sot}
 e-------------------------------------------------------------|
 B-----------------5--7b9r7-5--------------5--7b9r7--5--7?7b9v-|
 G-s/6v?4h6-------------------5---4h6--------------------------|
 D-------------------------------------------------------------|
 A-------------------------------------------------------------|
 E-------------------------------------------------------------|
 e-------------------------------------------------------|
 B------5--7b9r7--5--4--------5--7b9r7--5-----5----------|
 G-4h6--------------------4h6-----------------6------5s/-|
 D-------------------------------------------------------|
 A-------------------------------------------------------|
 E-------------------------------------------------------|
 {eot}
 
 [Verse]
 
 E C#m B Run
 
 {sot}
 e--------------------------------|
 B--------------------------------|
 G-9----18---16---13---11-6---4---|
 D-9----------------------6---4---|
 A-7----16---14---11---9--4---2---|
 E-0------------------------------|
 {eot}
 
 [E]Re[C#m]ndit[B]ion, rendition, blame it on the coalition
 [E]Al[C#m]l th[B]e emeralds that are missing, oh I wish we still had Jack Lemon
 [A]Re[Am]ndi[E]tion, rendition I never knew the sky was a prison
 [C#m]It's[A] a[Am] long hard revolution, oh good god I feel like a liberal
 
 [Chorus Tab]
 
 {sot}
 e-------------------------0-----------------------------|
 B-------------------------0---------------5-------------|
 G-2---2-------------------1---------------6-----4-----2-|
 D-2---2--------------2----2--------6------6-----4-----2-|
 A-0---0--------------2----2--------6------4-----2-----0-|
 E----------4----2----0----0--------4--------------------|
 {eot}
 
 [Chorus Chords]
 [A]Fo[(G#]r to[-]mo[F#)]rrow[E] I will beg, steal and borrow
 G#m C#m ? B - A
 And at the moment im jumping at sorrow
 [A]I [(G#]wish[-] I[F#)] kne[E]w what I did wrong
 G#m C#m ? B - A
 Can anybody hear the screaming of us?
 [Am]The screaming of us
 [E]In the long hard revolution
 
 [Verse as before]
 Rendition, rendition, blame it on the coalition
 The CIA will stay invisible, oh good god I sound like a liberal
 Rendition, rendition I never knew the sky was a prison
 It's a long hard revolution, oh good god I feel like a liberal
 
 [Chorus]
 For tomorrow I will beg, steal and borrow
 And at the moment im jumping at sorrow
 I wish I knew what I did wrong
 Can anybody hear the screaming of us? The screaming of us
 In the long revolution
 
 For tomorrow I will beg, steal and borrow
 And at the moment im jumping at sorrow
 I wish I knew what I did wrong
 Can anybody hear the screaming of us? The screaming of us
 In the long revolution
 
 Back to main riff
 
 Then
 
 Solo with chords A and E repeated underneath
 
 nb. improvise around this, its by no means perfect.
 
 
 {sot}
 e---------------------------------------------------------------------|
 B-------------------------------------------9h12p9--------------------|
 G-----------------------------9-9h11--11-----------9h11p9-------------|
 D-------9h11p9---9h11p9h11-11------------11---------------9h11p9------|
 A--9h11--------11------------------------------------------------11-9-|
 E---------------------------------------------------------------------|
 {eot}