Song Information for S.Y.M.M.

Song Title:S.Y.M.M.
Artist:Manic Street Preachers
Hits:132
{t:S.Y.M.M.}
 {st:Manic Street Preachers}
 
 MANIC SREET PREACHERS
 S.Y.M.M.
 Transcribed by Fung Mak fmak@globalnet.co.uk
 
 Riff 1
 
 {sot}
 e||-14v---------------------12---14vv--|
 B||---------15v-----12--15-------------|
 G||------------------------------------|
 D||------------------------------------|
 {eot}
 
 Riff 2
 
 {sot}
 e||-14v---------------------12---14~~(15)-|
 B||---------15v-----12--15----------------|
 G||---------------------------------------|
 D||---------------------------------------|
 {eot}
 
 [INTRO]
 Riff 1
 
 [VERSE 1]
 Riff 1 Riff 2
 The subtext of this song
 Riff 1 Riff 2
 I've thought about it for so long
 Riff 1 Riff 2
 But it's really not the thing that
 Riff 1 Riff 2
 People want to hear us sing
 
 [VERSE 2]
 
 {sot}
 e||-----------------------12--|
 {eot}
 The context of this song
 Well i could go on[Em] and on
 
 {sot}
 e||-12----------------------5------0--3-|
 {eot}
 But it's still unfashionable
 To believe in princ[Em]iples
 
 [CHORUS] (x2)
 [E]South south Yorkshire ma[A]ss murderer
 How can you s[D]leep at night, sleep at nig[E]ht
 
 [VERSE 3] (same as verse 1)
 The reason for this song
 Well it may be a pointless one
 But thank you Jimmy McGovern
 For reminding me of what lives on
 
 [VERSE 4] (same as verse 2)
 The ending for this song
 Well i haven't really thought of one
 There's is nothing i could ever say
 That could really take the pain away
 
 REPEAT CHORUS x2
 
 [OUTRO]
 
 {sot}
 e||------------------------------------------------------------------------------|
 B||-14b16--11b12-------------------------(14)b16-(14)b16-(14)b16-(14)b16-(14)b16-|
 G||---------------12b13----------------------------------------------------------|
 D||---------------------13b14r-13b14p11------------------------------------------|
 A||------------------------------------------------------------------------------|
 E||------------------------------------------------------------------------------|
 e||---------------------------------------------------------------7-----
 B||-16-16/14-14-14-14\12-12-12\10-10-10\9-9-9\7-7-7\5-5b7-----7b9---9r7-
 G||---------------------------------------------------------------------
 D||---------------------------------------------------------9-----------|
 A||-------------------------------------------------------7-------------
 E||---------------------------------------------------------------------
 e||-----------------------------------------------------------14b16-12----14b16-|
 B||-14b16--11b12-------------------------------------------------------14-------|
 G||---------------12b13---------------------------------------------------------|
 D||---------------------13b14-13-14-13-11-13-14-13-11-13-14---------------------|
 A||-----------------------------------------------------------------------------|
 E||-----------------------------------------------------------------------------|
 e||-----------7---------------------3----0----------0-|
 B||-------7b9---pb9-------------3b5------2----------0-|
 G||------------------7h9-----------------2----------0-|
 D||----9------------------2--5-----------2----------2-|
 A||-7------------------------------------0----------2-|
 E||-------------------------------------------------0-|
 {eot}
 upstroked chords