Song Information for Tsunami

Song Title:Tsunami
Artist:Manic Street Preachers
Hits:15
{t:Tsunami}
 {st:Manic Street Preachers}
 
 INTRO RIFF:
 
 {sot}
 -------------
 E|------------------------------|-----------8--9--8-----|
 B|------------11--12--11--------|---------9---------9---|
 G|---------11------------11-----|------10---------------|
 D|------11----------------------|----8------------------|
 A|----9-------------------------|--8--------------------|
 E|--9---------------------------|-----------------------|
 E|--------------13--14--13------|---------------------------|
 B|-----------16------------16---|-------------16--17--16----|
 G|--------15--------------------|----------16------------16-|
 D|-----13-----------------------|-------16------------------|
 A|--13--------------------------|-----14--------------------|
 E|------------------------------|--14-----------------------|
 {eot}
 
 VERSE:
 
 {sot}
 ------- 
 {eot}
 [F#]FOR YOU MY DEAR SISTER
 HOLDING ON TO ME FOR[Bbm7]EVER
 DISCO DANCING WITH THE [Ebm]RAPISTS
 YOUR ONLY CRIME IS [B]SILENCE
 
 CAN'T WORK AT THIS ANY[F#]MORE
 CAN'T MOVE I WANT TO STAY AT [Bbm7]HOME
 TIED UP TO ALL THESE [Ebm]CRUTCHES
 NEVER FAR FROM YOUR [B]HANDS
 
 CHORUS:
 
 {sot}
 --------
 {eot}
 [Db]TSUNAMI TSUNAMI CAME WASHING [B]OVER ME
 [Db]TSUNAMI TSUNAMI CAME WASHING [B]OVER ME
 [Db]CAN'T SPEAK, CAN`T[F] THINK, WON`T TALK, WO[F#]N`T WALK
 
 VERSE:
 
 {sot}
 --------
 {eot}
 DOCTORS TELL ME THAT I'M [F#]CYNICAL
 I TELL THEM THAT IT MUST BE [Bbm7]CHEMICAL
 SO WAHT AM I [Ebm]DOING GIRL
 CRY INTO MY DRINK I [B]DISAPPEAR
 
 EYES FOR TEETH GRATING [F#]OVER ME
 BRING DOWN THE SHADOWS OF MY [Bbm7]MIND
 SLEEP AND BREATH UNDER [Ebm]OUR SHEETS
 INHALE THE ANXIETY
 
 [B]INBETWEEN, INBETWEEN, INBETWEEN, INBETWEEN
 
 CHORUS:
 
 {sot}
 --------
 {eot}
 [Db]TSUNAMI TSUNAMI CAME WASHING [B]OVER ME
 [Db]TSUNAMI TSUNAMI CAME WASHING [B]OVER ME
 [Db]TSUNAMI TSUNAMI CAME WASHING [B]OVER ME
 [Db]TSUNAMI TSUNAMI CAME WASHING [B]OVER ME
 [Db]THROUGH SEPTEM[F]BER UNDER THE WEA[F#]THER
 
 BREAK:
 
 {sot}
 -------
 {eot}
 [F#] [Bbm7] [Eb] 
 [B]INBETWEEN, INBETWEEN, INBETWEEN, INBETWEEN
 
 CHORUS:
 
 {sot}
 --------
 {eot}
 [Db]TSUNAMI TSUNAMI CAME WASHING [B]OVER ME
 [Db]TSUNAMI TSUNAMI CAME WASHING [B]OVER ME
 [Db]TSUNAMI TSUNAMI CAME WASHING [B]OVER ME
 [Db]TSUNAMI TSUNAMI CAME WASHING [B]OVER ME
 [Db]TAKE THE GI'S [F]I WILL HAVE THE S[F#]IES
 
 EADGBe
 [F#]Bbm7 [244322]686666
 Ebm7 X68876
 B 799877
 [F]Db [133211]X46664