Song Information for Revol

Song Title:Revol
Artist:Manic Street Preachers
Hits:14
{t:Revol}
 {st:Manic Street Preachers}
 
 Revol, Manic Street Preachers
 Distortion and Tremolo
 
 Structure
 Intro
 Verse
 Chorus X2
 Verse
 Chorus X2
 Solo
 Chorus X2
 [End] 
 Intro
 
 {sot}
 e-|-----------------|------------------|
 B-|-----------------|------------------|
 G-|-----------------|------------------|
 D-|---3---1---2---1-|---3---1---2---3--|
 A-|-1---1---1---1---|-1---1---1-----1--|
 E-|-----------------|------------------|
 {eot}
 
 Instead of these 3 bars these play ** i cant decide
 which is right
 
 {sot}
 e-|-----------------|------------------|------------------------|
 B-|-----------------|------------------|------------------------|
 G-|-----------------|------------------|------------------------|
 D-|-5-5-5-5-5-5-5-5-|----7-7-7-7-7-7-7-|---10-10-10-10-10-10-10-|
 A-|-5-5-5-5-5-5-5-5-|----7-7-7-7-7-7-7-|---10-10-10-10-10-10-10-|
 E-|-3-3-3-3-3-3-3-3-|-/5-5-5-5-5-5-5-5-|-/8-8--8--8--8--8--8--8-|
 {eot}
 1st bar 2nd bar
 
 {sot}
 e-|--------------------------|-----------|
 B-|--------------------------|-----------|
 G-|--------------------------|-----------|
 D-|-----13-13-13-13-13-13-13-|-55-555--5-|
 A-|-----13-13-13-13-13-13-13-|-55-555--5-|
 E-|-\11-11-11-11-11-11-11-11-|-33-333--3-|
 {eot}
 3rd bar
 
 **
 
 {sot}
 e-|---------|---------|---------|
 B-|-0-0-etc.|-3-3-etc.|-6-6-etc.|
 G-|-2-2-etc.|-5-5-etc.|-8-8-etc.|
 D-|-2-2-etc.|-5-5-etc.|-8-8-etc.|
 A-|-0-0-etc.|-3-3-etc.|-6-6-etc.|
 E-|---------|---------|---------| Just choose which u think is best.
 {eot}
 1st 2nd 3rd
 
 (To rythmn of song.)
 
 Verse
 (Dont have to palm mute.)
 
 {sot}
 e-|--------------|------------|----------------------|
 B-|--------------|-----0------|-------3---------6----|
 G-|--------------|-----2------|-------5---------8----|
 D-|-5------------|-7-or2------|--10-or5----13-or8----|
 A-|-5------------|-7---0--pm--|--10---3-pm-13---6-pm-|
 E-|-3--palm mute-|-5----again-|--8---------11--------|
 {eot}
 Mr Lenin etc. Mr Stalin Kruschev Self love
 
 
 {sot}
 e-|--------------|
 B-|--------------|
 G-|--------------|
 D-|-5-5-555--5---|
 A-|-5-5-555--5---|
 E-|-3-3-333--3---|
 {eot}
 
 Same again or lead bit goes
 at 15 on e or 20 on B
 
 
 {sot}
 e-|-15-15-15-15-15-15-15-15-15-15-15-15-15-15-15-15 etc 
 {eot}
 until last 4 notes
 which are
 
 {sot}
 e-|-15------24----------23------19-|
 {eot}
 or 19 on B
 Chorus
 
 {sot}
 e-|-7-7-7-8-8-8--------7-7-7-----|-----------------------------|
 B-|------------10-10-10-----8-10-|-7-7-7-8-8-8-5-5-5-7-7-7---5-|
 G-|------------------------------|-------------------------7---|
 D-|------------------------------|-----------------------------|
 A-|------------------------------|-----------------------------|
 E-|------------------------------|-----------------------------|
 {eot}
 Revol Revol
 
 
 {sot}
 e-|------------|
 B-|------------|
 G-|-7-7--8-7-5-|
 D-|------------|
 A-|------------|
 E-|------------| X4
 {eot}
 
 Solo
 
 {sot}
 e-|---------------------------------------------------------------|
 B-|---------------------------------------------------------------|
 G-|---------------------------------------------------------------|
 D-|-5-5-5-0-0-0-1-1-1-8-8-8-7-8--10-10-10-12-12-12-10-10-10-8-7-8-|
 A-|---------------------------------------------------------------|
 E-|---------------------------------------------------------------|X2
 |------------------------|
 {eot}
 Played As 3sets of Triplets
 
 
 {sot}
 e-|-------------------6-6-6-5-6--8-8-8-10-10-10-8-8-8-6-5-6-|
 B-|-8-8-8---------------------------------------------------|
 G-|-------7-7-7-8-8-8---------------------------------------|
 D-|---------------------------------------------------------|
 A-|---------------------------------------------------------|
 E-|---------------------------------------------------------|X2
 |-------------------|
 {eot}
 Played As 3sets of Triplets
 (Last note on this last section on the second time round is
 an 8 on the B rather than a 6 on the e.)
 
 
 {sot}
 e-|-----------| e-|---------------------------------------------|
 B-|-7-7-8-7-5-| B-|-8-8-8-8-8-8-7-7-7-7-7-7-7-3-3-3-3-3-3-3-3-3-|
 G-|-----------| G-|- thats 6 8s 7 7s and 9 3s to finish it off--|
 D-|-----------| D-|---------------------------------------------|
 A-|-----------| A-|---------------------------------------------|
 E-|-----------|X4 or E-|---------------------------------------------|
 {eot}
 
 Just depends which you want to play rythmn or lead.
 
 [End] 
 {sot}
 e-|------|
 B-|------|
 G-|------|
 D-|-0----|
 A-|-2----|
 E-|-0----|
 {eot}
 Revol