Song Information for Stay Beautiful

Song Title:Stay Beautiful
Artist:Manic Street Preachers
Hits:14
{t:Stay Beautiful}
 {st:Manic Street Preachers}
 
 Riff A
 
 [D] [A5] [G] 
 {sot}
 e-|--------------|-3-3--3--|
 B-|-7-7----------|-3-3--3--|
 G-|-7-7----------|-4-4--4--|
 D-|-7-7--------7-|-5-5--5--|
 A-|-5-5-----4--7-|-5-5--5--|
 E-|------0--2--5-|-3-3--3--|
 {eot}
 
 Riff B
 
 P.M.
 [D] [F#m/D] [A/D] [G/D] [C] [G] 
 {sot}
 e-|------2--2------5---|-3-3----|--------|-3----|-3----|
 B-|------3--2------5---|-3-3----|-Repeat-|-5----|-3----|
 G-|------2--2------2---|-0-0----|---x3---|-5----|-4----|
 D-|-0-0----------------|--------|--------|-5----|-5----|
 A-|--------------------|--------|--------|-3----|-5----|
 E-|--------------------|--------|--------|------|-3----|
 {eot}
 
 Riff C
 
 
 {sot}
 e-|-2------2-----|
 B-|---3------3---|
 G-|--------------|
 D-|-----0------0-|
 A-|--------------|
 {eot}
 
 Riff D
 
 (P.M. open A string throughout riff)
 [A5] 
 {sot}
 D-|-7--5--4-ho-5-po-4---7-po-5-po-4-ho-5--7-po-5-po-4-ho-5-|
 A-|-0--0--0-------------0-----------------0----------------|
 E-|--------------------------------------------------------|
 {eot}
 
 Fill 1
 
 {sot}
 e-|-5-----------|
 B-|-7-bu-(9)-rb-|
 {eot}
 
 Fill 2
 
 {sot}
 e-|-7-po-5-------------5-|
 B-|--------7-po-5-ho-7---|
 G-|----------------------|
 {eot}
 
 Song Arrangement:
 
 Riff A x4
 
 Verse 1: Riff B
 
 Riff A x2
 
 Verse 2: Riff B
 
 Chorus
 (Fill 1)
 |E5 |E5 |G5 |G5 |D |D |
 
 Riff D
 (Riff C is played over chords below by guitar 2)
 (Fill 1)
 |E5 |E5 |G5 |G5 |D |D |
 
 Riff D
 
 Riff A x2
 
 Verse 3: Riff B
 
 Riff A x2
 
 Verse 4: Riff B
 
 Chorus: Repeat Chorus
 
 Mid-Section
 
 |D5 |D5 |G5 |G5 | x2
 
 Outro
 
 |D5 |A/C#5 |G5 |G5 |F#5 |E5 | x4
 
 (Fill 2)
 |D |D |
 
 Find your faith in your security
 All broken up at seventeen
 Jam your brain with broken heroes
 Love your masks and adore your failure
 
 We're a mess of eyeliner and spray paint
 D.I.Y. destruction on chanel chic
 Deny your culture of consumption
 This is a culture of destruction
 
 Don't wanna see your face
 Don't wanna hear your words
 Why don't you just
 
 Babes on the run with poisoned lips
 Wrap your arms 'round this everlasting kiss
 Clinging to your own sense of waste
 All we love is lonely wreckage
 
 Your school your dole and your checkbook dreams
 Your clothes your suits and your pension schemes
 Now you say you know how we feel
 But don't fall in love 'cos we hate you still
 
 Destroyed by madness
 Destroyed by madness
 Destroyed by madness
 Destroyed by madness
 Anxiety is freedom