Song Information for Nat West-Barclays-Midlands-Lloyds

Song Title:Nat West-Barclays-Midlands-Lloyds
Artist:Manic Street Preachers
Hits:17
{t:Nat West-Barclays-Midlands-Lloyds}
 {st:Manic Street Preachers}
 
 Intro
 Riff A
 P.M.
 
 {sot}
 G-|--------------------|------------------|------------------|-
 D-|-----12--------11---|----10--------7---|-----6--------5---|-
 A-|-----10---------9---|-----8--------5---|-----4--------3---|-
 E-|-0-0----0--0-0----0-|-0-0---0--0-0---0-|-0-0---0--0-0---0-|-
 G-|------------------|-----9--------------|------------------|-
 D-|-----5--------5---|-----9---------12---|----11--------7---|-
 A-|-----3--------3---|-----7---------10---|-----9--------5---|-
 E-|-0-0---0--0-0---0-|-0-0-------0-0----0-|-0-0---0--0-0---0-|-
 G-|-------------------|-----------------|
 D-|-----6---------5---|-5-5-5-5-5-5-5-5-|
 A-|-----4---------3---|-3-3-3-3-3-3-3-3-|
 E-|-0-0---0--0-0----0-|-----------------|
 {eot}
 
 
 Riff B
 [E5] [D5] [C5] [E5] 
 {sot}
 e-|---------------|---------------|----------------|---------------------|
 B-|---------------|-----/15-------|-----/13--------|---------------------|
 G-|-----9---------|-7---/14-------|-5---/11--------|------2po0-----------|
 D-|-----9---------|-7---/12-------|-5---/10--------|-2---------2po0------|
 A-|-----7----2-/4-|-5--------2-/4-|-3---------2-/4-|-2--------------2po0-|
 E-|-0-0-----------|---------------|----------------|-0-------------------|
 {eot}
 
 Repeat Twice
 
 Verse
 
 Heavy P.M.
 [E5] [D5] [C5] 
 {sot}
 G-|-9-9------------|-7-7------------|-5-5------------|-
 D-|-9-9------------|-7-7------------|-5-5------------|-
 A-|-7-7-7-7-7-2-/4-|-5-5-5-5-5-2-/4-|-3-3-3-3-3-2-/4-|-
 E-|----------------|----------------|----------------|-
 {eot}
 
 [E5] 
 {sot}
 G-|------------2po0-----------|
 D-|-2-2-------------2po0------| Repeat
 A-|-2-2------------------2po0-| x3
 E-|-0-0-0-0-0-----------------|
 {eot}
 
 [E5] [D5] [C5] 
 {sot}
 G-|-9-9------------|-7-7------------|-5-5------------|-5-5-----5-5-5-|
 D-|-9-9------------|-7-7------------|-5-5------------|-5-5-----5-5-5-|
 A-|-7-7-7-7-7-2-/4-|-5-5-5-5-5-2-/4-|-3-3-3-3-3-2-/4-|-3-3-3-3-3-3-3-|
 E-|----------------|----------------|----------------|---------------|
 {eot}
 
 Pre-Chorus
 
 [Csus2] [Dsus2] 
 {sot}
 e-|---------3-------|---------5-------|
 B-|-----3-----------|-------5---5-----|
 G-|---5-------5-----|-----7-------7---| Repeat
 D-|-------5-----5---|---7-----------7-| x2
 A-|-3-------------3-|-5---------------|
 E-|-----------------|-----------------|
 {eot}
 
 Chorus
 
 [E]Natwest, Natwest-Barclays-[B]Midlands-Lloyds
 
 Black horse [A]apocalypse Death sanitised through [E]credit
 
 Fill 2
 Play this over the last E chord in the last chorus
 
 
 {sot}
 A-|---4---5---6---7-|
 E-|-0---0---0---0---|
 {eot}
 
 Repeat Riff B x2
 
 Repeat Verse
 
 Repeat Pre-Chorus
 
 Repeat Chorus (with fill 2)
 
 Solo
 
 |A5 |G5 |B5 |B5 | x2
 
 Mid-Section
 
 [C#7] [D6sus2] [E5] 
 {sot}
 e-|---0--------0-----|-----------------|
 B-|-----0--------0---|-----------------|
 G-|------------------|-----------------|
 D-|-6--------7-------|--9--------------|
 A-|-4-----4-/5-----5-|-/7--------------|
 E-|------------------|-----0-0-0-0-0-0-|
 {eot}
 
 (vocals enter)
 P.M.
 [C#5] [D5] [E5] [C#5] [D5] 
 {sot}
 B-|-----------------|-----------------|----------|-----------------|-
 G-|-----------------|-----------------|----------|-----------------|-
 D-|-6-------7-------|-9---------------|--Repeat--|-6-------7-------|-
 A-|-4-4-4-4-5-5-5-5-|-7---------------|--- x3 ---|-4-4-4-4-5-5-5-5-|-
 E-|-----------------|-----0-0-0-0-0-0-|----------|-----------------|- 
 {eot}
 
 [D] 
 {sot}
 B-|-7----|-7----|-7----|-7----|
 G-|-7----|-7----|-7----|-7----|
 D-|-7----|-7----|-7----|-7----|
 A-|-5----|-5----|-5----|-5----|
 E-|------|------|------|------| 
 {eot}
 
 Repeat Chorus (with fill 2) x2
 
 Outro: Repeat Intro Riff A
 
 (chords names taken from piano riff)
 [C(sus2)] [Em(sus2)] 
 {sot}
 G-|-5-----|-------|-------|-------|-9-----|------|-------|-------|
 D-|-5-----|-------|-------|-------|-9-----|------|-------|-------|
 A-|-3-----|-------|-------|-------|-7-----|------|-------|-------|
 E-|-------|-------|-------|-------|-------|------|-------|-------|
 {eot}