Song Information for Tony Zoulias (Lustful Life)

Song Title:Tony Zoulias (Lustful Life)
Artist:Mando Diao
Hits:8
{t:Tony Zoulias (Lustful Life)}
 {st:Mando Diao}
 
 ********************************************
 **Mando Diao - Tony Zoulias (Lustful Life)**
 ********************************************
 
 Artist: Mando Diao
 Song: Tony Zoulias (Lustful Life)
 Album: Ode to Ochrasy
 Tabbers: Alfred & Axel
 Date: 09/10/2006
 
 Tabbed after the live performance at Liseberg, Sweden.
 
 | / slide up
 | \ slide down
 | h hammer-on
 | p pull-off
 | ~ vibrato
 | + harmonic
 | x Mute note
 | b Bend
 
 *Riff 1
 
 {sot}
 e|------------------------------------------------------------------------|
 B|------------------------------------------------------------------------|
 G|-12--12-12-10h12-10-----------------------------------------------------|
 D|--------------------12--12-12-10h12-10----------------------------------|
 A|---------------------------------------13--13-13-12h13-12-10--9---------|
 E|------------------------------------------------------------------------|
 e|------------------------------------------------------------------------|
 B|------------------------------------------------------------------------|
 G|-12--12-12-10h12-10-----------------------------------------------------|
 D|--------------------12--12-12-10h12-10--------------------10b12--10p8---|
 A|---------------------------------------13--13-13-12h13-12------------10-|
 E|------------------------------------------------------------------------|
 {eot}
 
 *Riff 2
 
 {sot}
 e|------------------------------------------------------------------------|
 B|------------------------------------------------------------------------|
 G|-12--12-12-10h12-10-----------------------------------------------------|
 D|--------------------12-----12-10h12-10----------------------------------|
 A|---------------------------------------13-------------------------------|
 E|------------------------------------------------------------------------|
 {eot}
 
 *Riff 3
 
 {sot}
 e|------------------------------------------------------------------------|
 B|------------------------------------------------------------------------|
 G|-12--12-12-10h12-10-----------------------------------------------------|
 D|--------------------12--12-12-10h12-10----------------------------------|
 A|---------------------------------------13--13-13-12h13-12-10--9---------|
 E|------------------------------------------------------------------------|
 e|----------------------------------------------------------------------------|
 B|----------------------------------------------------------------------------|
 G|12------14-----15-----/17--15--14--12------14------15-----/17--15--17--17b19|
 D|----------------------------------------------------------------------------|
 A|----------------------------------------------------------------------------|
 E|----------------------------------------------------------------------------|
 {eot}
 
 *Riff 4
 
 {sot}
 e|----------------------------------------------------------------|
 B|----------------------------------------------------------------|
 {eot}
 G|1212121212121212121212121212121214141414141414141414141414141414|
 
 {sot}
 D|----------------------------------------------------------------|
 A|----------------------------------------------------------------|
 E|----------------------------------------------------------------|
 e|----------------------------------------------------------------|
 {eot}
 B|1313131313131313131313131313131315151515151515151515151515151515|
 
 {sot}
 G|----------------------------------------------------------------|
 D|----------------------------------------------------------------|
 A|----------------------------------------------------------------|
 E|----------------------------------------------------------------|
 e|--------------------------------13131313131313131313131313131313|
 B|16161616161616161616161616161616--------------------------------|
 G|----------------------------------------------------------------|
 D|----------------------------------------------------------------|
 A|----------------------------------------------------------------|
 E|----------------------------------------------------------------|
 {eot}
 
 e|15151515151515151515151515151515---|
 
 {sot}
 B|-----------------------------------|
 G|--------------------------------12~|
 D|-----------------------------------|
 A|-----------------------------------|
 E|-----------------------------------|
 {eot}
 
 
 
 Intro:
 (*Riff 1)
 [D5] [Gm] [Cm] [Bb] [D] [Gm] [Cm] [Bb] [D] 
 Verse:
 
 I had a h[Gm]eart attack
 And boy it br[Cm]ought me back
 To where I w[Bb]as before I started to bel[D]ieve in myself
 I didn't n[Gm]eed no gun
 I didn't n[Cm]eed no sword
 I didn't [Bb]even know the meaning of the t[D]errible war
 I didn't n[Cm]eed you
 And you didn't need m[Gm]e
 No it don't m[F]atter what you told
 My G[D]od, you sold your soul
 
 Chorus:
 And if you [Bb]ever see me w[F]ithout home
 You kn[Gm]ow that's 'cause I w[Eb]ant it so
 I just l[Bb]ike to l[D]ive a little lustful l[Gm]ife
 And if it's l[Bb]ightning on a s[F]unny day
 You kn[Gm]ow that's 'cause I w[Eb]ant my way
 I just l[Bb]ike to l[D]ive a little lustful l[Gm]ife
 (*Riff 1)
 L[Cm]ive a little lustful l[Bb]ife
 To l[D]ive a lustful l[Gm]ife[Cm][Bb][D]
 
 Verse:
 Oh I didn't n[Gm]eed no fun
 I didn't n[Cm]eed no cunt
 To tell me wh[Bb]en to leave my door in the m[D]orning sun
 'Cause I know wh[Gm]ere it's at
 Yeah I know wh[Cm]ere it's at
 It's up to [Bb]every little fellow down to [D]every cat
 You never n[Cm]eed me
 And I never need y[Gm]ou
 Now it don't m[F]atter what you told
 My G[D]od, you sold your soul
 
 Chorus:
 And if you [Bb]ever see me w[F]ithout home
 You kn[Gm]ow that's 'cause I w[Eb]ant it so
 Bb D Gm(*Riff 2)
 I just like to live a little lustful life
 And if it's l[Bb]ightning on a s[F]unny day
 You kn[Gm]ow that's 'cause I w[Eb]ant my way
 I just l[Bb]ike to l[D]ive a little lustful l[Gm]ife
 (*Riff 3)
 [Cm]Live a little lustful [Bb]life
 To l[D]ive a lustful l[Gm]ife[D][Bb][Cm][Gm][D][Bb][Cm][D]
 
 Solo:
 [Gm] [Cm] [Bb] [D] 
 {sot}
 e|---------------------8--8--8-8-8-8--------------------------------------|
 B|---------------------8--8--8-8-8-8---------------------7--7--7-7-7-7----|
 G|---------------------8--8--8-8-8-8---------------------7--7--7-5-5-5----|
 D|-10b12--10----8-10---10-10-10101010-10b12--10----8-10--7--7--7-7-7-7----|
 A|-----------12--------------------------------12-------------------------|
 E|------------------------------------------------------------------------|
 {eot}
 [Gm] [Cm] [Bb] [D] 
 {sot}
 e|---------------------8--8--8-8-8-8--------------------------------------|
 B|---------------------8--8--8-8-8-8---------------------7--7--7-7-7-7----|
 G|---------------------8--8--8-8-8-8---------------------7--7--7-7-7-7----|
 D|-10b12--10----8-10---10-10-10101010-10b12--10----8-10--7--7--7-7-7-7----|
 A|-----------12--------------------------------12-------------------------|
 E|------------------------------------------------------------------------|
 {eot}
 [Gm] [Cm] [Bb] 
 {sot}
 e|---------------------------------------------------------------------------------|
 B|---------------------------------------------------------------------------------|
 G|---------------------------------------------------------------------------------|
 {eot}
 D|-88888888888888881010101010101010101010101010101012121212121212121212121212121212|
 
 {sot}
 A|---------------------------------------------------------------------------------|
 E|---------------------------------------------------------------------------------|
 {eot}
 [D] [Gm] 
 {sot}
 e|----------------------------------------------------------------|
 B|----------------------------------------------------------------|
 G|--------------------------------10101010101010101010101010101010|
 D|13131313131313131313131313131313--------------------------------|
 A|----------------------------------------------------------------|
 E|----------------------------------------------------------------|
 {eot}
 [Cm] [Bb] 
 {sot}
 e|----------------------------------------------------------------|
 B|----------------------------------------------------------------|
 {eot}
 G|1212121212121212121212121212121214141414141414141414141414141414|
 
 {sot}
 D|----------------------------------------------------------------|
 A|----------------------------------------------------------------|
 E|----------------------------------------------------------------|
 {eot}
 [D] [Gm] 
 {sot}
 e|----------------------------------------------------------------|
 B|----------------------------------------------------------------|
 {eot}
 G|1515151515151515151515151515151512121212121212121212121212121212|
 
 {sot}
 D|----------------------------------------------------------------|
 A|----------------------------------------------------------------|
 E|----------------------------------------------------------------|
 {eot}
 [Cm] [Bb] 
 {sot}
 e|----------------------------------------------------------------|
 B|----------------------------------------------------------------|
 {eot}
 G|1414141414141414141414141414141415151515151515151515151515151515|
 
 {sot}
 D|----------------------------------------------------------------|
 A|----------------------------------------------------------------|
 E|----------------------------------------------------------------|
 {eot}
 [D] [Gm] 
 {sot}
 e|----------------------------------------------------------------|
 {eot}
 B|1313131313131313131313131313131315151515151515151515151515151515|
 
 {sot}
 G|----------------------------------------------------------------|
 D|----------------------------------------------------------------|
 A|----------------------------------------------------------------|
 E|----------------------------------------------------------------|
 {eot}
 [Cm] [Bb] 
 {sot}
 e|----------------------------------------------------------------|
 B|13131313131313131313131313131313--------------------------------|
 G|--------------------------------15151515151515151515151515151515|
 D|----------------------------------------------------------------|
 A|----------------------------------------------------------------|
 E|----------------------------------------------------------------|
 {eot}
 [D] 
 {sot}
 e|---------------------------------|
 B|---------------------------------|
 {eot}
 G|14141414141414141414141414141414-|
 
 {sot}
 D|---------------------------------|
 A|---------------------------------|
 E|---------------------------------|
 {eot}
 
 Chorus:
 (*Riff 1)
 And if you [Gm]ever see me w[Cm]ithout home
 You kn[Bb]ow that's 'cause I w[D]ant it so
 I just l[Gm]ike to l[Cm]ive a little lustful l[Bb]ife[D]
 (*Riff 1)
 And if it's l[Gm]ightning on a s[Cm]unny day
 You kn[Bb]ow that's 'cause I w[D]ant my way
 I just l[Gm]ike to l[Cm]ive a little lustful l[Bb]ife [D]
 (*Riff 4)
 To Live a little lustful to [Gm]live, to live
 And to d[Cm]ie, to die
 To l[Bb]ive, to live
 And to d[D]ie, to die
 To l[Gm]ive, to live
 And to d[Cm]ie, to die
 To l[Bb]ive, to live
 And to d[D]ie, to die
 To d[Gm]ie
 
 Over and out //ALAX