Song Information for Welcome Home, Luc Robitaille

Song Title:Welcome Home, Luc Robitaille
Artist:Mando Diao
Hits:5
{t:Welcome Home, Luc Robitaille}
 {st:Mando Diao}
 
 *********************************************
 **Mando Diao - Welcome Home, Luc Robitaille**
 *********************************************
 
 Artist: Mando Diao
 Song: Welcome Home, Luc Robitaille
 Album: Ode to Ochrasy
 Tabbers: Alfred & Axel
 Date: 01/10 2006
 
 | / slide up
 | \ slide down
 | h hammer-on
 | p pull-off
 | ~ vibrato
 | + harmonic
 | x Mute note
 
 Chords:
 [Bm] [Em] [D] [G] [F#/A#] [F#m] 
 {sot}
 e|--7-----7-----5-----3-----6-----9--|
 B|--7-----8-----7-----3-----7-----10-|
 G|--7-----9-----7-----4-----6-----11-|
 D|--9-----9-----7-----5-----8-----11-|
 A|--9-----7-----5-----5-----9-----9--|
 E|--7-----------------3-----6--------|
 {eot}
 
 Intro:
 Guitar #2
 
 {sot}
 e|---------------------------|
 B|---------------------------|
 G|-----4-4-4-4-4-4-4-4-4-4...|Play untill the verse begins.
 D|-9\--4-4-4-4-4-4-4-4-4-4...|
 A|---------------------------|
 E|---------------------------|
 {eot}
 
 Guitar #1 Smile...
 
 {sot}
 e|-7--7----------------7--7----------------7--7----------------7--7----|
 B|-8--8--7---7---7---7-8--8--7---7---7---7-8--8--7---7---7---7-8--8--7-|
 G|-9--9--7---7---7---7-9--9--7---7---7---7-9--9--7---7---7---7-9--9--7-|
 D|-9--9--9---9---9---9-9--9--9---9---9---9-9--9--9---9---9---9-9--9--9-|
 A|-------9---9---9---9-------9---9---9---9-------9---9---9---9-------9-|
 E|---------------------------------------------------------------------|
 {eot}
 
 *Riff #1
 
 {sot}
 e|-7-7-7-7-7-7-7-7-7-7-7-7...|Play untill "...happy thoughts"
 B|-7-7-7-7-7-7-7-7-7-7-7-7...|
 G|---------------------------|
 D|---------------------------|
 A|---------------------------|
 E|---------------------------|
 {eot}
 
 *Riff #2
 
 {sot}
 e|-----------------------------|
 B|-----------------------------|
 G|-4-4-4-4-4-4-4-4-4-4-4-4/9-/9|
 D|-4-4-4-4-4-4-4-4-4-4-4-4-----|
 A|-----------------------------|
 E|-----------------------------|
 {eot}
 
 Verse:
 Sm[Bm]ile you're on [Em]TV ag[Bm]ain
 You must p[Em]ut up a h[D]appy f[G]ace
 D G (*Riff 1)
 Your mother told you to on christmas day
 [Bm] Oh you must d[Em]o what they s[Bm]ay
 Now you're th[Em]inking of h[D]appy th[G]oughts
 Like n[D]o one did you h[G]arm and it was [Bm]all 1234
 L[F#/A#]ife is so brilliant, but why? I'm not so s[Bm]ure.
 You rem[Em]ember the d[Bm]ay
 You rem[Em]ember the p[D]ackage
 Wh[G]ere he [D]used to spend his y[G]ears
 
 Bridge:
 And now you found h[F#m]im
 Or w[Em]as it him that found y[F#m]ou?
 It f[Em]eels like you already kn[F#m]ew
 L[Em]ife is sweet when he is back
 
 So I just say
 Chorus:
 W[D]elcome h[G]ome, Luc R[D]obitaille
 There's s[G]o much that you m[Bm]issed
 I'm [G]old but [D]I need you as m[G]uch as yesterd[Bm]ay
 Oh M[A]ister Robitaille st[G]ay
 F# Bm (*Riff 2)x2
 I threw the others away
 
 [Em] [Bm] [Em] 
 Verse:
 Th[Bm]is must be the w[Em]orst thing I've d[Bm]one
 I don't know [Em]even why I wr[D]ote this s[G]ong
 D G Bm (*Riff 2, very vague)
 There's so much more to him than that paper card
 Look at him cr[Em]ossing the l[Bm]ine
 Oh [Em]it's so h[D]ard to def[G]ine the m[D]oves inside my h[G]ead
 It's all just bl[Bm]ood blood blood sweat tears s[F#/A#]weat sweat behind all f[Bm]ears
 ( WHAT?!?!?!?! )
 Now it s[Em]eems so cl[Bm]ear
 Everyth[Em]ing falls [D]into pl[G]ace
 This m[D]athematic m[G]aze and now you found m[F#m]e
 
 Bridge:
 Or w[Em]as it me that found y[F#m]ou?
 It f[Em]eels like you already kn[F#m]ew
 L[Em]ife is sweet when he is back
 
 So I just say
 
 Chorus:
 W[D]elcome h[G]ome, Luc R[D]obitaille
 There's s[G]o much that you m[Bm]issed
 I'm [G]old but [D]I need you as m[G]uch as yesterd[Bm]ay
 Oh M[A]ister Robitaille st[G]ay
 [F#] I threw the others away
 Bm (Riff 2)x4
 I threw the others away
 
 Solo:
 
 {sot}
 e|---------------------------------------------------------------------|
 B|-------------------------------------7--7--7--7---------------7---7--|
 G|-7--7--7--7-----7--9--9--9--7--9--7--------------10-10-10--9----9---9|
 D|-------------9-------------------------------------------------------|
 A|---------------------------------------------------------------------|
 E|---------------------------------------------------------------------|
 e|--------------7-7-10-9-7--------------------------------------|
 B|-10-10-10-10-------------10-7-7h10-7--------------------7----7|
 G|-------------------------------------9-9h11p9\7-7---7-9---9---|
 D|-------------------------------------------------9------------|
 A|--------------------------------------------------------------|
 E|--------------------------------------------------------------|
 e|-------------------------------7--------------------------|
 B|-/12--12-12-10-10-10-8-8-8-7-8---8-7-8-7-------8----------|
 G|-----------------------------------------9-7-9---7h9-7-9-7|
 D|----------------------------------------------------------|
 A|----------------------------------------------------------|
 E|----------------------------------------------------------|
 {eot}
 
 Verse:
 Sm[Bm]ile you're on [Em]TV ag[Bm]ain
 You must p[Em]ut up a h[D]appy f[G]ace
 Your m[D]other told you t[G]o
 And now you see you f[F#m]ound him
 Or w[Em]as it him that found y[F#m]ou?
 It f[Em]eels like you already kn[F#m]ew
 L[Em]ife is sweet when he is back
 
 So I just say
 
 Chorus:
 W[D]elcome h[G]ome, Luc R[D]obitaille
 There's s[G]o much that you m[Bm]issed
 I'm [G]old but [D]I need you as m[G]uch as yesterd[D]ay
 M[G]ister Robitaille st[D]ay
 [G] I threw the others aw[Bm]ay
 [G]Oh I threw the others aw[Bm]ay
 [G]Oh I threw the others aw[Bm]ay
 [G]Oh I threw the others aw[Bm]ay
 [G]Oh I threw the others aw[Bm]ay
 [G] I threw the others aw[Bm]ay
 [G] I threw the others aw[Bm]ay
 [G] I threw the others aw[Bm]ay
 
 Over and out // ALAX