Song Information for All My Senses

Song Title:All My Senses
Artist:Mando Diao
Hits:9
{t:All My Senses}
 {st:Mando Diao}
 
 ******************************
 **Mando Diao - All My Senses**
 ******************************
 
 Artist: Mando Diao
 Song: All My Senses
 Album: Hurricane Bar
 Tabbers: Alfred
 Date: 09/14/2006
 
 | / slide up
 | \ slide down
 | h hammer-on
 | p pull-off
 | ~ vibrato
 | + harmonic
 | x Mute note
 
 *Riff 1
 
 {sot}
 e|-------------------------------|
 B|-----2-5-------4-------2-------|
 G|---2-------2-------2-------2---|
 D|-4-----------4-------4-------4-|
 A|-------------------------------|
 E|-------------------------------|
 {eot}
 *Riff 2
 
 {sot}
 e|-------------2---5---2---------|
 B|-----2-5-2-5-----------5-2-----|
 G|-2-5---------------------------|
 D|-------------------------------|
 A|-------------------------------|
 E|-------------------------------|
 {eot}
 
 Intro:
 [F#m] 
 {sot}
 e|---------------------------------------------------------------|
 B|---------2---------------2-----------2-5-------4-------2-------|
 G|-----2-----2---2-----2-----2---2---2-------2-------2-------2---|
 D|-4-----4-----4---4-----4-----4---4-----------4-------4-------4-|
 A|---------------------------------------------------------------|
 E|---------------------------------------------------------------|
 {eot}
 [A] [Bm] [C#m] [Bm] [A] 
 {sot}
 e|-------5-------7-------5---------------7----------------9-------7-------5-------555-|
 B|-----5-----5-------5-------5---------7-----7----------9-------7-------5-----5---555-|
 G|---6---------6-------6-------6-----7---------7------9-------7-------6---------6-666-|
 D|/7------------------------------/9--------------/11------\9------\7-------------777-|
 A|------------------------------------------------------------------------------------|
 E|------------------------------------------------------------------------------------|
 {eot}
 
 Verse:
 P[F#m]ull the trigger, break down in a l[A]ove affair
 When I said I d[Bm]idn?t care,[C#m] you started s[Bm]earching for tom[A]orrow
 Yeah p[F#m]ull the trigger, my girl you?re running [A]all alone
 I said I was b[Bm]ack home,[C#m] but I?m f[Bm]ar awa[A]y
 
 Bridge:
 And there ain?t[F#m] no p[C#m]oint in the words [Bm]I wr[F#m]ite
 Th[Bm]ere ain?t no way to know[A] me
 But it sure[F#m] felt[C#m] right when I saw[Bm] your [F#m]eyes
 B[Bm]ut now they feel like, oh yeah they feel like Mo[C#]ndays
 
 Chorus:
 And [D]all my s[E]enses s[F#m]eem to shine through the d[Bm]ay
 S[D]eem to shine through the d[E]ay, honey that?s ok[F#m]ay
 Yes [D]all my s[E]enses s[F#m]eem to shine in the n[Bm]ight
 S[D]eem to shine in the n[E]ight, honey that?s alr[F#m]ight
 
 Verse:
 (*Riff 1)
 [F#m]In your heart girl, I see a jealous b[A]utterfly
 You wanted me h[Bm]igh, love,[C#m] but I?m s[Bm]ober st[A]ill
 (*Riff 1)
 Yeah [F#m]in your heart girl, there?s nothing left but m[A]isery
 Come dance while I?m g[Bm]etting free,[C#m] I?m gonna l[Bm]ie ag[A]ain
 Bridge:
 And there ain?t[F#m] no p[C#m]oint in the words [Bm]I wr[F#m]ite
 Th[Bm]ere ain?t no way to get[A] me
 But it sure[F#m] was h[C#m]igh when I saw y[Bm]our sm[F#m]ile
 [Bm] But now your always, oh yes you?re always g[C#]one girl
 
 Chorus:
 And [D]all my s[E]enses s[F#m]eem to shine through the d[Bm]ay
 S[D]eem to shine through the d[E]ay, honey that?s ok[F#m]ay
 Yes [D]all my s[E]enses s[F#m]eem to shine in the n[Bm]ight
 S[D]eem to shine in the n[E]ight, honey that?s alr[C#]ight
 
 oh yeah yeah
 
 Solo:
 [D] [E] 
 {sot}
 e|---------------------------------------------------------12------------|
 B|---------------12-14-12-------------------------------12-----15--14--12|
 G|14------14-14------------14--13--11--13------13----13------------------|
 D|----12-----------------------------------14-----14---------------------|
 A|-----------------------------------------------------------------------|
 E|-----------------------------------------------------------------------|
 {eot}
 [F#m] [Bm] [D] 
 {sot}
 e|----------------------------------------------------------------------------------|
 B|14--12----12----------------------------------------------------12----------------|
 G|-------14-----14-13-14--13-11-13--11-13-14--1311-13-14-13-11-13-----14-13-14-13-11|
 D|----------------------------------------------------------------------------------|
 A|----------------------------------------------------------------------------------|
 E|----------------------------------------------------------------------------------|
 {eot}
 [E] [C#] 
 {sot}
 e|-----------------------------------------|
 B|12---------------------------------------|
 G|---14-13-14-13--11-9--11-9---------------|
 D|----------------------------12-11--11-11-|
 A|-----------------------------------------|
 E|-----------------------------------------|
 {eot}
 
 Chorus:
 
 Yeah [D]all my s[E]enses s[F#m]eem to shine in the n[Bm]ight
 D E F#m(*Riff 2)
 Seem to shine in the night, honey that?s alright
 And [D]all my s[E]enses s[F#m]eem to be in this s[Bm]ong
 (*Riff 1)
 Th[D]inking all day l[E]ong, honey what went wr[F#m]ong
 (*Riff 1)
 Tell me what went wr[F#m]ong
 Tell me what went wr[F#m]ong
 
 Over and out //ALAX