Song Information for Ringing Bells

Song Title:Ringing Bells
Artist:Mando Diao
Hits:12
{t:Ringing Bells}
 {st:Mando Diao}
 
 
 {sot}
 -------------------------------------------------------------------------
 {eot}
 Song:Ringing Bells
 Artist:Mando Diao
 Album:Hurricane Bar
 Tabber:Alexthebeatle
 
 {sot}
 -------------------------------------------------------------------------
 {eot}
 
 -INTRO:
 
 [A] [F#m] [A] [F#m] 
 {sot}
 |-----------0----------0h2-5---|-------------0----------0h2-5----|
 |------Oh2----2----------------|-------0h2----2------------------|
 |---2-----------2--------------|----2-----------2----------------|
 |-------------------4----------|--------------------4------------|
 |---0--------------------------|----0----------------------------|
 |------------------------------|---------------------------------|
 {eot}
 
 -VERSE:
 
 [A]Stick around your [F#m]neck
 
 and [A]see what it can [F#m]bring
 
 [E]Lonely stands the [D]butcher on the [A]ground[F#m]
 
 [A]Little angel [F#m]fly,
 
 [A]fly among the [F#m]stars
 
 [E]Jupiter will [D]comfort you with [A]love[A7]
 
 So [D]who are you gonna [E]follow
 
 Are you [C#m]going out some[F#m]where
 
 Can it [D]be the new thing money e[E]nough
 
 [D]Where's that hat you [E]loved once
 
 Let us [C#m]spoil it for a [F#m]day
 
 Bring 'em [D]in she said just for a [E]day
 
 Just for a [A]daaaa[F#m]ay [A]daaa[F#m]aay
 
 
 {sot}
 ------------------------------------------------------------------------
 {eot}
 On the way to you between busy moon
 Crash beneath a window left in bloom
 The days are few my friend and winter comes again
 Clap, clap and the boy is to lose
 
 So who are you gonna follow
 Are you going out somewhere
 Can it be the new thing money enough
 Where's that hat you loved once
 Let us spoil it for a day
 Bring 'em in she said just for a day
 Just for a day
 
 {sot}
 -----------------------------------------------------------------------
 {eot}
 
 [A]Ringing bells in [F#m]Saxton and Oakland
 
 [A]bringing you [F#m]home
 
 [A]Ringing bells in [F#m]Saxton and Oakland
 
 [A]bringing you [F#m]home...........................