Song Information for You Can’t Steal My Love

Song Title:You Can’t Steal My Love
Artist:Mando Diao
Hits:10
{t:You Can??t Steal My Love}
 {st:Mando Diao}
 
 ****************************************
 **MANDO DIAO - You can't steal my love**
 ****************************************
 
 Artist: Mando Diao
 Song: You Can't Steal my Love
 Album: Hurricane Bar
 Tabber: Beamer
 Date: 02/16/2005
 
 Intro:
 
 [D] 
 [D] [A] [Bm] [F#m] 
 [G] [A] [D] [A] 
 Intro Riff:
 
 
 {sot}
 E:-----------------------------|
 B:-3333-22-00------------------|
 G:--------------22-00----------|
 D:--------------------44-2-0---|
 A:-----------------------------|
 E:-----------------------------|
 {eot}
 
 Verse 1:
 [D]I was walking [A]down the street with my [Bm]chains tied up [F#m]to my feet
 [G]I leaned instead of [A]jiggie with the [D]sidewalk[A]
 [D]Now this street tells the [A]same old boring [Bm]tale that has failed in [F#m]so many ways of
 [G]life To trust its [A]stories you've got to be [D]dull as them
 
 Refrain:
 And all the [G]love I've got in [A]here
 You've just [F#]killed you peasants didn't [Bm]even care
 The [G]love I had in [F#m]store you raped for [Bm]more
 And all the [G]dreams I had in [A]here
 you've just [F#]stolen You peasants didn't [Bm]even care
 But the [G]dreams I had for [F#m]her you cannot [E]touch,
 my golden hand 'Cause it's guarded by your [A]promises
 
 Bridge (with Intro Riff):
 
 [D] [A] [Bm] [F#m] 
 [G] [A] [D] [A] 
 
 Verse 2:
 [D]I met her in a [A]crowded room where the [Bm]bookshelves help you and [F#m]knowledge takes your
 [G]hand I watched her [A]beauty from an [D]armchair[A]
 I said "[D]Hey girl have you [A]seen that film with those [Bm]kids in New York in the [Fm]eighties
 Oh, you [G]have - Well, can I [A]watch it with you [D]anyway"
 
 Refrain:
 And all the [G]love I've got in [A]here
 You've just [F#]killed you peasants didn't [Bm]even care
 The [G]love I had in [F#m]store you raped for [Bm]more
 And all the [G]dreams I had in [A]here
 you've just [F#]stolen You peasants didn't [Bm]even care
 But the [G]dreams I had for [F#m]her you cannot [E]touch,
 my golden hand 'Cause it's guarded by your [A]promises
 
 Solo (with Refrain Chords) :
 
 
 {sot}
 E:-----------------------------------------------|
 H:----------------------------------------10--10-|
 G:--2/6--7-7---6^7^6-------7---9--9--9b11--------|
 D:--------------------7--9---9-------------------|
 A:-----------------------------------------------|
 E:-----------------------------------------------|
 E:-----------7---10--7--10--10--7--10--10^12^10-|
 H:-------10-------------------------------------|
 G:--9b11----------------------------------------|
 D:----------------------------------------------|
 A:----------------------------------------------|
 E:----------------------------------------------|
 E:----------------------------------------------|
 H:--10^12^10------------------------------------|
 G:------------11--9--9b7--7---------------------|
 D:----------------------------7-7-7-------------|
 A:----------------------------------------------|
 E:----------------------------------------------|
 E:--5/10-10---------7---------------------------|
 H:--5--------10--7-----10--8--7----7------------|
 G:------------------------------9----7----------|
 D:-------------------------------------9--------|
 A:----------------------------------------------|
 E:----------------------------------------------|
 E:----------------------------------------------|
 H:--7--8---------------------------------7--10--|
 G:--------9--7--9--9b11b9--7---7-7-7--9---------|
 D:----------------------------------------------|
 A:----------------------------------------------|
 E:----------------------------------------------|
 E:----------------------------------------------|
 H:--7-------------------------------------------|
 G:-----9b11b9---7^9^7---6---7-------------------|
 D:----------------------------------------------|
 A:----------------------------------------------|
 E:----------------------------------------------|
 {eot}
 
 Middle Part:
 
 [D]Congratula[A]tion Mr. Major you [Bm]savior, betrayer, you [F#]stinking master of
 [G]trusts, How does it [A]feel to ride all those [D]horses[A]
 You [D]cannot touch our [A]hearts when we're in [Bm]bloom I assume that we'll [F#m]win over the heads
 [G]again we conceal non, you'll [A]feel none, that's what I [D]promise
 And all the [G]love we've got in [A]store,
 you can't [F#]kill You peasants! We [Bm]won it all
 And the [G]love I have for [F#m]her you cannot
 [E]touch, my golden hand, 'Cause it's guarded by your [A]filthy promises
 
 Refrain:
 And all the [G]love I've got in [A]here
 You've just [F#]killed you peasants didn't [Bm]even care
 The [G]love I had in [F#m]store you raped for [Bm]more
 And all the [G]dreams I had in [A]here
 you've just [F#]stolen You peasants didn't [Bm]even care
 But the [G]dreams I had for [F#m]her you cannot [E]touch,
 my golden hand 'Cause it's guarded by your [A]promises
 
 Ending Part (with Intro Riff until the End):
 
 [D] [A] [Bm] [F#m] 
 [G] [A] [D] [A] 
 Honey I [D]love you, [A]like the summer [Bm]falls[F#m]
 And the winter [G]crawls[A] you're above and be[D]yond [A]me...
 Honey I [D]love you, [A]like the summer [Bm]falls[F#m]
 And the winter [G]crawls[A] you're above and be[D]yond [A]me...
 
 Ending Solo:
 
 [D] [A] [Bm] [F#m] 
 {sot}
 E:--17///--19///--17///--14///-15///-14///------|
 H:----------------------------------------------|
 G:----------------------------------------------|
 D:----------------------------------------------|
 A:----------------------------------------------|
 E:----------------------------------------------|
 {eot}
 
 [G] [A] [D] [A] 
 {sot}
 E:--12///--14///--10////--12///--14////--12///--|
 H:----------------------------------------------|
 G:----------------------------------------------|
 D:----------------------------------------------|
 A:----------------------------------------------|
 E:----------------------------------------------|
 {eot}
 
 Honey I [D]love you, [A]like the summer [Bm]falls[F#m]
 And the winter [G]crawls[A] you're above and be[D]yond [A]me...