Song Information for I Know a Little

Song Title:I Know a Little
Artist:Lynyrd Skynyrd
Hits:3
{t:I Know a Little}
 {st:Lynyrd Skynyrd}
 
 by Lynyrd Skynyrd
 
 Album: Street Survivors (1977)
 
 
 INTRO:
 [Bb7] [A7] [Eb9]
 [D9] 
 
 {sot}
 |---------5-5-|---------5-5----6--5--|---------5-5-|---------5-5---6--5-|
 |-----5-7-----|-----5-7--------6--5--|-----5-7-----|-----5-7-------6--5-|
 |-5-6---------|-5-6------------7--6--|-5-6---------|-5-6-----------6--5-|
 |-------------|----------------6--5--|-------------|---------------5--4-|
 |-------------|----------------8--7--|-------------|---------------6--5-|
 |-------------|----------------6--5--|-------------|--------------------|
 {eot}
 
 
 [Bb7] [A7] [F9]
 [E9] 
 
 {sot}
 |-----5---5-5-|-----5---5-5----6--5--|---------5-5-|---------5-5---8--7-|
 |-5-7---7-----|-5-7---7--------6--5--|-----5-7-----|-----5-7-------8--7-|
 |-------------|----------------7--6--|-5-6---------|-5-6-----------8--7-|
 |-------------|----------------6--5--|-------------|---------------7--6-|
 |-------------|----------------8--7--|-------------|---------------8--7-|
 |-------------|----------------6--5--|-------------|--------------------|
 |-----7-7-7-|-----5-5-5-|
 |-5/9-------|-3/7-------|
 |-----------|-----------|
 |-----------|-----------|
 |-----------|-----------|
 |-----------|-----------|
 |Rake------------|
 |-12------11----10------b8--|--8------5--5-|-------5------5-|----------|
 |----10------9--------------|-----8p5------|-8p7p5---b8-----|----------|
 |-------9-------------------|--------------|----------------|-8p7p5---5|
 |---------------------------|--------------|----------------|-------7--|
 |---------------------------|--------------|----------------|----------|
 |---------------------------|--------------|----------------|----------|
 |-------5-----8p5-----------|----------------|
 |-----5---8p5-----8p5-------|--------------5-|
 |-5-6-----------------8p7p5-|-7---5----------|
 |---------------------------|---7----7p5-----|
 |---------------------------|------------7---|
 |---------------------------|----------------|
 {eot}
 
 
 (This is the part that climbs up, group your notes)
 
 
 {sot}
 |-8p7p5------9p8p6------10p9p7------11p10----12|-----------------------|
 |-------6----------7-----------8----------9----|-b12--v10----v10---b12-|
 |----------------------------------------------|----------11-----------|
 |----------------------------------------------|-----------------------|
 |----------------------------------------------|-----------------------|
 |----------------------------------------------|-----------------------|
 |-12--10--12--10-|-b8----------------|----------------------|
 |----------------|----10---10--------|----------------------|
 |----------------|-------9-----8p7p5-|--7--5---5---------b5-|
 |----------------|-------------------|-------7---5--7-b7----|
 |----------------|-------------------|----------------------|
 |----------------|-------------------|----------------------|
 |---------5-5-|--------------------------|------------------------------|
 |-----5-7-----|--8p7p5-------------------|------------------------------|
 |-5-6---------|--------8p7p5---7---5-7p5-|------------------------------|
 |-------------|--------------7---7-------|-7p5---5-7-5-----7-9----7---7-|
 |-------------|--------------------------|-----7-------7/9----------9---|
 |-------------|--------------------------|------------------------------|
 |--------------|
 |--------------|
 |-5------------|
 |----7---5--7--|
 |--------------|
 |--------------|
 {eot}
 
 
 [G] [G#] [A] 
 {sot}
 |-----------------------|---------------------------|------------------|
 |-----------------------|---------------------------|------------------|
 |---4-----5-------6-----|-4p2p0----------2--2-----2-|-4p2p0----------2-|
 |---5-----6--6----7-7-7-|-------4p2p0----2--2-----2-|-------4p2p0----2-|
 |-5-5---6-6--6--7-7-7-7-|-------------b3------3h4---|-------------b3---|
 |-3-----4-------5-------|---------------------------|------------------|
 |--------------------| repeat this for the A chord
 |--------------------|
 |---2-----2-2-----2--|
 |---2-----2-2--4--2--|
 |-0---3h4------------|
 |--------------------|
 {eot}
 
 And here are the Chords to the Lyrics (I just writed the first Verse and the Chorus, because it's illegal to write the whole Lyrics(look at the Submit Information))
 
 W[A]ell the bigger the city the brighter the lights.
 
 Bigger the dog, well, the harder the bite
 
 I don't know where ya been last night,
 
 but, I think, uh, mama you ani't doin' right
 
 
 Chorus:
 
 Say [D9]I know a little, [A]I know a little about it.
 
 I kn[D9]ow a little, [A]I know a little about it.
 
 I kn[E9]ow a little about [D9]love,
 
 but [G]baby I can g[G#]uess the r[A]est.