Song Information for Gimme Back My Bullets

Song Title:Gimme Back My Bullets
Artist:Lynyrd Skynyrd
Hits:13
{t:Gimme Back My Bullets}
 {st:Lynyrd Skynyrd}
 
 ============================================================================
 Artist:Lynyrd Skynyrd
 Album:Gimme Back My Bullets
 Song:Gimme Back My Bullets
 
 Tuning: 1/2 down [Eb] [Ab] [Db] [Gb] [Bb] [Eb]
 
 Tabulature Legend:
 x=muted string/note
 p=pull-off
 
 [INTRO] [Repeat 4x]
 
 {sot}
 e|--------------------------------------------|
 B|--------------------------------------------|
 G|------------------5----x-x-x-x----2---------|
 D|--x-x-x-----------5----x-x-x-x----2---------|
 A|--x-x-x------0----3p0--x-x-x-x----0---------|
 E|--x-x-x--0h3---3----------------3-----------|
 {eot}
 
 [Other variations are used
 [VERSE] between chords and muted strings]
 
 {sot}
 e|-----------------------------------------------------|
 B|-----------------------------------------------------|
 G|--2-2-2--x-x--5-5-5--x-x--7-7-7--x-x--2-2-2----------|
 D|--2-2-2--x-x--5-5-5--x-x--7-7-7--x-x--2-2-2----------|
 A|--0-0-0--x-x--3-3-3--x-x--5-5-5--x-x--0-0-0----------|
 E|-----------------------------------------------------|
 {eot}
 Life is a strangething changing yes indeed
 
 
 {sot}
 e|-----------------------------------------------------|
 B|-----------------------------------------------------|
 G|--2-2-2--x-x--5-5-5--x-x---------x-x--2-2-2----------|
 D|--2-2-2--x-x--5-5-5--x-x--5-5-5--x-x--2-2-2----------|
 A|--0-0-0--x-x--3-3-3--x-x--5-5-5--x-x--0-0-0--3p0-----|
 E|--------------------------3-3-3------------------3---|
 {eot}
 Well, I've hard turns pressure's been on me
 
 
 {sot}
 e|-----------------------------------------------------|
 B|-----------------------------------------------------|
 G|--2-2-2--x-x--5-5-5--x-x--7-7-7--x-x--2-2-2----------|
 D|--2-2-2--x-x--5-5-5--x-x--7-7-7--x-x--2-2-2----------|
 A|--0-0-0--x-x--3-3-3--x-x--5-5-5--x-x--0-0-0----------|
 E|-----------------------------------------------------|
 {eot}
 Well I keep workin'like workin' man do
 
 
 {sot}
 e|-----------------------------------------------------|
 B|-----------------------------------------------------|
 G|--2-2-2--x-x--5-5-5--x-x---------x-x--2-2-2----------|
 D|--2-2-2--x-x--5-5-5--x-x--5-5-5--x-x--2-2-2----------|
 A|--0-0-0--x-x--3-3-3--x-x--5-5-5--x-x--0-0-0--3p0-----|
 E|--------------------------3-3-3------------------3---|
 {eot}
 And I've got my act together walk you
 
 [CHORUS] [D5] [C5] [A5]
 
 {sot}
 e|------------------------------------------|--------------------------|
 B|------------------------------------------|--------------------------|
 G|-------------5----x-x-x-x----2------------|--7----5----2-------------|
 D|-------------5----x-x-x-x----2------------|--7----5----2-------------|
 A|--------0----3p0--x-x-x-x----0-------0----|--5----3----0-----3p0---0-|
 E|----0h3---3----------------3-----0h3---3--|----------------3-----3---|
 {eot}
 give me bullets put em back
 
 {sot}
 |-------------------------| 
 {eot}
 REPEAT 4x DURING SOLO
 
 [D5] [C5] [G5] [A5]
 Ain`t foolin round cause I'm done have my fun
 [D5] [C5] [G5] [A5]
 Ain`t gonna see no more damage done.
 
 Repeat [INTRO] 2x
 Then play verse