Song Information for Sweet Home Alabama

Song Title:Sweet Home Alabama
Artist:Lynyrd Skynyrd
Hits:11
{t:Sweet Home Alabama}
 {st:Lynyrd Skynyrd}
 
 *Sweet Home Alabama - Lynyrd Skynyrd*
 tabbed by Alan (The Guitar Maniac!)
 sixstringed@hotmail.com
 
 Intro:
 
 [D] [C] [G] 
 
 {sot}
 E|----------------------------3------------------|
 B|-------3---------3----------0------------------|
 G|---------2-0-------0--------0------------------|
 D|---0-0----------------------0------0h2-0-------|
 A|-------------3-3----3-------2--0h2------h2-0h2-|
 E|------------------------3-3-3------------------|
 {eot}
 
 [D] [C] [G] 
 {sot}
 E|--------------------------3--------------------|
 B|-----3---------3----------0--------------------|
 G|-------2-0-------0--------0-0-0-2p0-0-4p0-0-5b-|
 D|-0-0----------------------0--------------------|
 A|-----------3-3----3-------2--------------------|
 E|----------------------3-3-3--------------------|
 {eot}
 
 
 (Guitar 2 comes in and plays the chords)
 [D] [C] [G] 
 {sot}
 E|----------------------------3------------------|
 B|-------3---------3----------0------------------|
 G|---------2-0-------0--------0------------------|
 D|---0-0----------------------0------0h2-0-------|
 A|-------------3-3----3-------2--0h2------h2-0h2-|
 E|------------------------3-3-3------------------|
 {eot}
 
 
 [D] [C] [G] 
 {sot}
 E|----------------------------3------------------|
 B|-------3---------3----------0------------------|
 G|---------2-0-------0--------0--------0---------|
 D|---0-0----------------------0------0-----------|
 A|-------------3-3----3-------2--0h2-------------|
 E|------------------------3-3-3------------------|
 {eot}
 
 Verse and Chorus:
 ( Tab from: http://www.guitartabs.cc/tabs/l/lynyrd_skynyrd/sweet_home_alabama_tab_ver_6.html )
 [D] [C] [G] 
 {sot}
 E|----------------------------3------------------|
 B|-------3---------3----------0------------------|
 G|---------2-0-------0--------0------------------|
 D|---0-0----------------------0------0h2-0-------|
 A|-------------3-3----3-------2--0h2------h2-0h2-|
 E|------------------------3-3-3------------------|
 {eot}
 
 
 [D] [C] [G] 
 {sot}
 E|----------------------------3------------------|
 B|-------3---------3----------0------------------|
 G|---------2-0-------0--------0------------------|
 D|---0-0----------------------0------0h2-0-------|
 A|-------------3-3----3-------2--0h2------h2-0h2-|
 E|------------------------3-3-3------------------|
 {eot}
 
 
 [D] [C] [G] 
 {sot}
 E|----------------------------3------------------|
 B|-------3---------3----------0------------------|
 G|---------2-0-------0--------0------------------|
 D|---0-0----------------------0------0h2-0-------|
 A|-------------3-3----3-------2--0h2------h2-0h2-|
 E|------------------------3-3-3------------------|
 {eot}
 
 [D] [C] [G] 
 {sot}
 E|----------------------------3-----3-|
 B|-------3---------3----------0-----0-|
 G|---------2-0-------0--------0-----0-|
 D|---0-0----------------------0-----0-|
 A|-------------3-3----3-------2-----2-|
 E|------------------------3-3-3-3-3-3-|
 {eot}
 
 then hit this riff snd do it twice:
 
 {sot}
 E|---------------------------------------------|
 B|---------------------------------------------|
 G|-------7-7---------5-5------------0-0--------|
 D|-------7-7---------5-5----------0-----0------|
 A|-7h8h9-----9\7-5/7-----7\0--0h2--------------|
 E|---------------------------------------------|
 {eot}
 
 So you get the point. It is pretty much just the same
 over and over again.
 Just play the first part of the verse for the chorus.
 Any questions go to Alan - sixstringed@hotmail.com