Song Information for Faith

Song Title:Faith
Artist:
Hits:3
{t:Faith}
 {st:Limp Bizkit}
 
 1st time ko 2.. TY ng marami sa "TROPA" alam na nila un..
 ARIBA tayo tol..
 nga pala next time na lang un bass line... inaan2k na kc ako..
 rate nyo na lang mga tol..
 Have FUN, PEACE and LOVE!!
 signed DGTAL
 
 Tune to "Drop D," (low to high: D A D G B E)
 
 [D] [C5/D] [D4] [D5] [E5] 
 {sot}
 e|x--------|x--------|x-------|x------|x-------|
 B|----7----|x--------|x-------|x------|x-------|
 G|----7----|---5-----|----7---|x------|x-------|
 D|----7----|---5-----|--5-----|x------|x-------|
 A|--5------|---5-----|--5-----|o------|--2-----|
 D|x--------|x------- |x-------|o------|--2-----|
 {eot}
 
 
 Intro:
 
 [D-] 
 need some time off from that emotion time to pick
 this river becomes an ocean Before you pick my heart up off the
 
 
 {sot}
 e|----------------|-------------------------|-------------------|
 B|-------5--------|------(7)-----5/7--------|--------5----------|
 G|----------------|-------7------5/7-----7--|--------5----------|
 D|----5-------5-5-|---7----------5/7--------|----5-------5------|
 A|-3--------------|-5---------5-------5-----|-3-------------3---|
 D|----------------|-------------------------|-------------------|
 {eot}
 
 floor When my love comes down without devotion
 Well it
 floor When our love comes down without devotion Well it
 
 {sot}
 e|----------------------------|--------------------|----------------------------|
 B|---------7-------5/7---7----|--------5-----------|----------7------5/7----7---|
 G|---------7-------5/7---7----|--------5-----------|----------7------5/7--------|
 D|------7----------5/7---7----|----5--------5------|------7---------------5-----|
 A|-3/5---------5-------5------|-3--------------3---|-3/5----------5-------------|
 D|----------------------------|--------------------|----------------------------|
 {eot}
 
 takes a strongman baby but I'm a showin' you that door I gotta have
 faith Gotta have
 (w/ distortion)
 
 {sot}
 e|---------------------|--------------5---------|---------------------------------------|
 B|-------------2-------|-2-3-2------------------|---------------------------------------|
 G|--------2------------|--------2---------------|-7/5--------------7/5--------7---------|
 D|----2-----------2----|-----------2------------|-7/5--------------7/5------------------|
 A|-0-------------------|------------------------|-5----------------5----------5---------|
 D|---------------------|------------------------|------0--0--0--0-------0--0--0---------|
 {eot}
 
 faith Gotta have faith Gotta have faith Baby
 
 {sot}
 e|-----------------------------------|-------------------------|-----------------------------|
 B|-----------------------------------|-------------------------|-----------------------------|
 G|-7/5--------------7/5--------7-----|-7/5--------------7/5----|-7/5--------------7/5--------|
 D|-7/5--------------7/5--------------|-7/5--------------7/5----|-7/5--------------7/5--------|
 A|-5----------------5----------5-----|-5----------------5------|-5----------------5----------|
 D|------0--0--0--0-------0--0--0-----|------0--0--0--0---------|------0--0--0--0-------------|
 {eot}
 
 I know you're asking me to stay say ple- ple--
 
 {sot}
 e|-------------------------|-------------------|-------------------------|-------------------|
 B|-------------------------|----7--------------|-------------------------|----7--------------|
 G|-7--------7--------7-----|-------------7-----|-7--------7--------7-----|-------------7--7--|
 D|-7--------7--------7-----|-------------------|-7--------7--------7-----|-------------------|
 A|-5--------5--------5-----|-------------------|-5--------5--------5-----|-------------------|
 D|----0--0-----0--0-----0--|-0-----0--0--------|----0--0-----0--0-----0--|-0-----0--0--------|
 {eot}
 
 please don't go away cause you're givin me the blues baby
 
 {sot}
 e|-------------------------|-------------------------|-------------------------|-------------------|
 B|-------------------------|----5--------------------|-------------------------|----7--------------|
 G|-5--------5--------5-----|----5--------5-----5-----|-7--------7--------7-----|-------------7-----|
 D|-5--------5--------5-----|-------------5-----5-----|-7--------7--------7-----|-------------------|
 A|-3--3--3--3--3--3--3--3--|-3-----3--3-----3-----3--|-5--------5--------5-----|-------------------|
 D|-------------------------|-------------------------|----0--0-----0--0-----0--|-0-----0--0--------|
 {eot}
 
 you remind me of the words you say Can't help but
 
 {sot}
 e|-------------------------|-------------------|-------------------------|-------------------|
 B|-------------------------|----7--------------|-------------------------|----7--------------|
 G|-7--------7--------7-----|-------------7-----|-7--------7--------7-----|-------------7--7--|
 D|-7--------7--------7-----|-------------------|-7--------7--------7-----|-------------------|
 A|-5--------5--------5-----|-------------------|-5--------5--------5-----|-------------------|
 D|----0--0-----0--0-----0--|-0-----0--0--------|----0--0-----0--0-----0--|-0-----0--0--------|
 {eot}
 
 think of yesterday another who tied me down to the
 lover boy Before
 
 {sot}
 e|-------------------------|-------------------------|-------------------------|-------------------------|
 B|-------------------------|----5--------------------|-------------------------|-------------------------|
 G|-5--------5--------5-----|----5--------5-----5-----|-7--------7--------7-----|-------------7-----7-----|
 D|-5--------5--------5-----|-------------5-----5-----|-7--------7--------7-----|-7--7--5--7--7-----7--7--|
 A|-3--3--3--3--3--3--3--3--|-3-----3--3-----3-----3--|-5--------5--------5-----|-5--5--5--5--5-----5-----|
 D|-------------------------|-------------------------|----0--0-----0--0-----0--|-0--0--------0--0--------|
 {eot}
 
 faith Get the fuck up gotta have
 
 {sot}
 e|-------------------------|-------------------------------------------|
 B|-------------------------|-------------------------------------------|
 G|-------------------------|-------------------------------------------|
 D|-7/5-----7--------7/5----|-------------------------------------------|
 A|-5-------5---------------|-0--0----0--0----0--0----1--1--1--1/0--0---|
 D|-0----0-----0--0---------|-0--0----0--0----0--0----1--1--1--1/0--0---|
 {eot}
 
 faith I gotta have faith...
 
 {sot}
 e|-----------------------------------------|------------------------------------|
 B|-----------------------------------------|------------------------------------|
 G|-----------------------------------------|------------------------------------|
 D|-----------------------------------------|------------------------------------|
 A|--0--0----0--0--0--0----1--1--1--1/0--0--|-0--0----1--0--0--0----1--0--0--0---|
 D|--0--0----0--0--0--0----1--1--1--1/0--0--|-0--0----1--0--0--0----1--0--0--0---|
 {eot}