Song Information for Stalemate

Song Title:Stalemate
Artist:
Hits:3
{t:Stalemate}
 {st:Limp Bizkit}
 
 [Intro] Two-handed tapping
 
 {sot}
 E|-------------------9t-------------------------------------t9--------------|
 B|--------------------------12t/14------------------------------------------|
 F#|--------7t---12tp0-----------------------------7t---12tp0----------12t/13-|
 F#|-12t-12t---------------12t------------12t-12t-----------------12t---------|
 {eot}
 
 [Intro#2] clean with Flanger
 
 {sot}
 E|---------------------------------------------------------------------------------------------------|
 B|---------------------------------------------------------------------------------------------------|
 F#|---------------------------------------------------------------------------------------------------|
 F#|-0-0---0---0---0-0--0-0---0-0-------0---0-0--0-0----0-0---0---0---0-0--0-0---0-0---0---0---0-0--0-0|
 {eot}
 
 [Verse] with palm muting and distorsion
 PM
 
 {sot}
 E|---------------------------------------------------------------------------------------------------|
 B|---------------------------------------------------------------------------------------------------|
 F#|---------------------------------------------------------------------------------------------------|
 F#|-0-0---0---0---0-0--0-0---0-0-------0---0-0--0-0----0-0---0---0---0-0--0-0---0-0---0---0---0-0--0-0|
 {eot}
 PM...................................................................................................
 
 [Chorus] DISTORSION
 
 {sot}
 E|-----------------------------------|
 B|-----------------------------------|
 F#|------12b--------12b-----------12b-|
 F#|-0-0-------0--0--------0----0------|
 {eot}
 
 [Interlude] clean and Flanger
 
 {sot}
 E|-------------------------------------------------------------|
 B|-------------------------------------------------------------|
 F#|-------------------------------------------------------------|
 F#|-0-0-0--x--0---0--0--0--0--0--x---0-0-0--x-0---0--0--0--0--0-|
 E|-x-x--7-7-/-9-9-9--10-10-10-10--9-9-9-9----x-x-x-x-x-x-x-x-|
 B|-x-x--x-x---x-x-x--x--x--x--x---x-x-x-x----x-x-x-x-x-x-x-x-|
 F#|-x-x--5-5-/-7-7-7--8--8--8--8---7-7-7-7----x-x-x-x-x-x-x-x-|
 F#|-----------------------------------------------------------|
 {eot}
 
 [Interlude#2] DISTORSION
 
 {sot}
 E|-----7/-9------9/-10--10-9---14-14-14-15-|
 B|-----x--x------x--x---x--x----x--x--x--x-|
 F#|-----5/-7------7/-8---8--7---12-12-12-13-|
 F#|-0-0-------0-0---------------------------|
 {eot}
 PM... ...
 
 [Outro]
 
 {sot}
 E|--------------------------------------------------------------|
 B|-----------5---------5-------5----------7---------7---------7-|
 F#|-0-0-0-0-0---0-0-0-0----0-0-0---0-0-0-0---0-0-0-0----0-0-0----|
 F#|--------------------------------------------------------------|
 {eot}
 PM.......... ....... ..... ....... ....... .....