Song Information for Nobody Loves Me

Song Title:Nobody Loves Me
Artist:
Hits:3
{t:Nobody Loves Me}
 {st:Limp Bizkit}
 
 Song: Nobody Loves Me
 Album: Three Dollar Bill Y'all
 
 Intro
 
 {sot}
 C#-------------------------------------------------------------
 G#-------------------------------------------------------------
 E--------------------------------------------------------------
 B--------------------------------------------------------------
 F#---6-5--5------6-5--5----2-----6-5--5------6-5--5-----2--2---
 C#---4-3--3---0--4-3--3--0-0-----4-3--3---0--4-3--3--0--0--0--- 
 {eot}
 P.M - - - - -
 
 Chorus (0:12)
 
 {sot}
 C#-------------------------------------------------------------
 G#-------------------------------------------------------------
 E-------9---9----9b-----9---9----9b-----9-------10-------------
 B--------------------------------------------------------------
 F#------7---7----7b-----7---7----7b-----7--------8-------------
 C#------0---0-----------0---0-----------0--------0------------- 
 {eot}
 
 Verse (0:42)
 
 {sot}
 C#-------------------------------------------------------------
 G#-------------------------------------------------------------
 E-------------------------------------------------------10b----
 B--------------------------------------------------------------
 F#-------------------------------------------------------8b----
 C#--0-4-3-0-6-0-0-4-3-0-3-0-3-0-6-0-4-3-0-6-0-0-4-3-4-0--------
 P.M - - - - - - - - - - - - - - - - - - - - - - - - - -
 C#-------------------------------------------------------------
 G#-------------------------------------------------------------
 E--------------------------------------------------------------
 B---------------------------------------------------------3----
 F#--------------------------------------------------------3----
 C#--0-5-3-1-0-0-0-0-5-3-1-0-0-0-0-0-5-3-1-0-0-0-0-5-3-1---1----
 P.M. - - - - - - - - - - - - - - - - - - - - - - - - - 
 {eot}
 
 Interlude (2:10)
 
 {sot}
 C#-------------------------------------------------------------
 G#-------------------------------------------------------------
 E--------------------------------------------------------------
 B---9b--9-x-x-x-x-x-x-x-------------9b-x-x-x-x-x-x-x-9-9-9-9-9-
 F#--7b--7-x-x-x-x-x-x-x-7-7-7-7-7-7-7b-x-x-x-x-x-x-x-7-7-7-7-7-
 C#----------------------0-0-0-0-0-0---------------------------- 
 {eot}
 
 Bridge (2:39)
 
 {sot}
 C#-------------------------------------------------------------
 G#-------------------------------------------------------------
 E--------------------------------------------------------------
 B--------------------------------------------------------------
 F#---2--2-----------------------2--2--2--3--3--3--2------------
 C#---0--0--0--0--0--0--0--0--0--0--0--0--1--1--1--0------------
 P.M. - - - - - - - - - - 
 {eot}
 
 Bridge 2 (2:48)
 
 {sot}
 C#-------------------------------------------------------------
 G#-------------------------------------------------------------
 E--------------------------------------------------------------
 B--------------------------------------------------------------
 F#---2--2--------------2--2-----------2--2-----3--3------------
 C#---0--0--0--0--0--0--0--0--0--0--0--0--0--0--1--1------------
 P.M. - - - - - - - - - - - 
 {eot}
 
 Bridge 3 (2:53)
 
 {sot}
 C#-------------------------------------------------------------
 G#-------------------------------------------------------------
 E--------------------------------------------------------------
 B--------------------------------------------------------------
 F#---2--2--------------------------------------3--3------------
 C#---0--0--0--0--0--0--0--0--0--0--0--0--0--0--1--1------------
 P.M. - - - - - - - - - - - - - - - - - - 
 {eot}
 
 Breakdown (2:58)
 
 {sot}
 C#-------------------------------------------------------------
 G#-------------------------------------------------------------
 E------------2---------2----------------2---------2------------
 B--------------------------------------------------------------
 F#---2-2-2-2---2-2-2-2---2-2-3--2-2-2-2---2-2-2-2---3-3-3------
 C#---0-0-0-0---0-0-0-0---0-0-1--0-0-0-0---0-0-0-0---1-1-1------ 
 {eot}
 [H] [H] [H][H]