Song Information for Counterfeit

Song Title:Counterfeit
Artist:Limp Bizkit
Hits:5
{t:Counterfeit}
 {st:Limp Bizkit}
 
 ?Counterfeit? by: Limp Bizkit
 
 Tabbed by: Chris Gill
 Email: CGill1403@aol.com
 
 Tuning: C# G# C# F# A# D#
 
 INTRO- w/ delay
 
 {sot}
 D#|------------------------------------------------------------|
 A#|------------------------------------------------------------|
 F#|----------------------------------------------------x--x-x--|
 C#|--------7--7------------7--4--4---------7--7--------x--x-x--| x6
 G#|--6--5---------6--5--5------------6--5--------6--5--x--x-x--|
 C#|------------------------------------------------------------|
 {eot}
 PM............................................................
 
 
 {sot}
 D#|------------------------------------------------------------|
 A#|------------------------------------------------------------|
 F#|-------------------------------------------------------7----|
 C#|--------7--7------------7--4--4---------7--7----------------|
 G#|--6--5---------6--5--5------------6--5--------6--5--5-------|
 C#|------------------------------------------------------------|
 {eot}
 PM............................................................
 
 
 {sot}
 D#|----------------------------------------------------|
 A#|----------------------------------------------------|
 F#|----------------------------------------------------|
 C#|--------8--8------------8--5--5---------8--8--------|
 G#|--7--6---------7--6--6------------7--6--------7--6--|
 C#|----------------------------------------------------|
 {eot}
 PM....................................................
 
 CHORUS- w/ heavy distortion
 
 {sot}
 D#|-----------------------------------------------------------------|
 A#|-----------------------------------------------------------------|
 F#|-----------------------------------------------------------------|
 C#|-1-0---------1-0--0-----------1-0---------1-0--0-----------------| x4
 G#|-1-0---------1-0--0-----------1-0---------1-0--0-----------------|
 C#|-1-0--4--4---1-0--0--4--5--5--1-0--4--4---1-0--0--5-5-4-3-2-2-1--|
 {eot}
 [+] [+] [+] [+] [+] [+] [+] h[+]ar[+]mo[+]ni[+]c [+]sl[+]id[+]e
 VERSE- bass transcribed for guitar
 
 {sot}
 D#|-----------------------------------------------|
 A#|-----------------------------------------------|
 F#|-----------------------------------------------|
 C#|-----------------------------------------------| x6
 G#|-/5--3--6-----5-----5----/5--3--6-----5--------|
 C#|-----------9-----8-----------------9-----8-----|
 {eot}
 PM...............................................
 
 CHORUS
 
 VERSE
 
 CHORUS
 
 BRIDGE- bass transcribed for guitar
 
 {sot}
 D#|-----------------------------------------------|
 A#|-----------------------------------------------|
 F#|-----------------------------------------------|
 C#|----------7-------7---------------5-------5\7--| x8
 G#|------7-------7-------7-------5-------5---5\7--|
 C#|--7-----------------------5--------------------|
 {eot}
 PM.............................................
 
 w/ heavy distortion
 
 {sot}
 D#|-----------------------------------------------------------|
 A#|-----------------------------------------------------------|
 F#|-----------------------------------------------------------|
 C#|-----------------------------------------------------------| x2
 G#|----5-3----------------------------5-3------------------5--|
 C#|--0-----0-5-7-0-3--0-0-0-2-3-2---0-----0-5-7-0-2--0-0-0----|
 {eot}
 
 w/ heavy distortion
 
 {sot}
 D#|-----------------------------------------------------------|
 A#|-----------------------------------------------------------|
 F#|-----------------------------------------------------------|
 C#|-----------------------------------------------------------| x2
 G#|----5-3----------------------------5-3------------------5--|
 C#|--0-----0-5-7-0-3--0-0-0-2-3-2---0-----0-5-7-0-2--0-0-0----|
 {eot}
 PM............................................................
 
 w/ heavy distortion
 
 {sot}
 D#|-----------------------------------------------------------|
 A#|-----------------------------------------------------------|
 F#|-----------------------------------------------------------|
 C#|-----------------------------------------------------------| x4
 G#|----5-3----------------------------5-3------------------5--|
 C#|--0-----0-5-7-0-3--0-0-0-2-3-2---0-----0-5-7-0-2--0-0-0----|
 {eot}
 
 w/ heavy distortion
 
 {sot}
 D#|-----------------------------------------------------------|
 A#|-----------------------------------------------------------|
 F#|-----------------------------------------------------------|
 C#|----7/5----------------------------7/5------------------7--| x3
 G#|----5/3---5\7---3--------2-3-2-----5/3---5-7---2--------5--|
 C#|--0-----0-5\7-0-3--0-0-0-2-3-2---0-----0-5-7-0-2--0-0-0----|
 {eot}
 
 w/ heavy distortion
 
 {sot}
 D#|-----------------------------------------------------------|
 A#|-----------------------------------------------------------|
 F#|-----------------------------------------------------------|
 C#|----7/5----------------------------7/5------------------7^-|
 G#|----5/3---5\7---3--------2-3-2-----5/3---5-7---2--------5^-|
 C#|--0-----0-5\7-0-3--0-0-0-2-3-2---0-----0-5-7-0-2--0-0-0----|
 {eot}