Song Information for Lost and Found

Song Title:Lost and Found
Artist:
Hits:3
{t:Lost and Found}
 {st:Limp}
 
 
 {sot}
 ------------------------------------------------------------------------
 {eot}
 LOST AND FOUND LIMP
 
 {sot}
 ------------------------------------------------------------------------
 {eot}
 
 > MEANS STRUM
 
 INTRO
 
 {sot}
 G]-----------------] [----]
 D]-----------------] [----]
 A]-------5-3-2---5-]x2 [----]
 E]-3-2-0-------5---] [-3>-]
 {eot}
 
 VERSE
 PART A
 
 {sot}
 G]---------------------]
 D]---------------------]
 A]----------10>-5>-5-7-]
 E]-3>-7>-5>------------]
 {eot}
 
 PART B
 
 {sot}
 G]---------------------]
 D]---------------------]
 A]----------10>-5>-5-7-]
 E]-3>-7>-8>------------]
 {eot}
 
 PRE-CHORUS
 
 {sot}
 G]----------]
 D]----------]
 {eot}
 A]-7-7-5-3>-]x3
 
 {sot}
 E]----------]
 {eot}
 
 VERSE
 PRE-CHORUS
 CHORUS
 
 {sot}
 G]-------------------------]
 D]-------------------------]
 A]----------5>-3>-2>----5>-]x3
 E]-3>-2>-0>----------5>----]
 G]-------------------]
 D]-------------------]
 A]----------5>----5>-]
 E]-3>-2>-0>----5>----]
 {eot}
 
 BACK IN VERSE
 
 {sot}
 G]----------] [-------]
 D]----------] [-------]
 A]-3>-5>----]x3 [-3>-5>-]
 E]-------3>-] [-------]
 {eot}
 
 VERSE: PART B
 PRE-CHORUS
 CHORUS
 BRIDGE
 
 {sot}
 G]----------------------------------]
 D]---9-----8-----7-----6------------]
 A]-7---7-6---6-5---5-4---4-3>----5>-]
 E]----------------------------3>----]
 {eot}
 
 CHORUS
 END ON G
 
 TABBED BY FUNKEL