Song Information for Neverending Story

Song Title:Neverending Story
Artist:
Hits:1
{t:Neverending Story}
 {st:Limahl}
 
 Intro: C - Cm - F/Dm - Am - G
 
 Verse1:
 [C]Turn around[Cm], look at what you [F]see...[Am][-][G]
 [C]In her face[Cm], the mirror of your [F]dream...[Am][-][G]
 
 Pre-chorus:
 [Eb]Make believe I'm everywhere
 [Cm]Given in the l[Bb]ines
 [Eb]Written on the p[Cm]ages
 Is the [G#]answer to a [Bb]neverending
 
 Chorus:
 S[C]tooryyyy[Cm]y...
 [Dm] [Am] [G] 
 {sot}
 Ah-ah-aah...ah-ah-aah...ah-ah-aah...
 {eot}
 
 Verse2:
 Reach the stars, fly a fantasyyy...
 Dream a dream, and what you see will beee...
 
 Rhymes that keep their secrets
 Will unfold behind the clouds
 And there upon the rainbow
 Is the answer to a neverending
 
 Stooryyyyy...
 
 {sot}
 Ah-ah-aah...ah-ah-aah...ah-ah-aah...
 Storyyy... Ah-ah-aah...ah-ah-aah...ah-ah-aah...
 {eot}
 
 Keyboard Solo: G - Em - Hm - Hm, C - D - G
 Guitar Solo: Bb - Gm - Dm - Dm, Eb - F - Bb, G
 
 Guitar Solo:
 
 {sot}
 e-------------------------------------------------------------
 b-----------------13--15----15--15---13-------15--------------
 g---15-----15-15--------------------------15--------14-14-----
 d-------------------------------------------------------------
 a-------------------------------------------------------------
 E-------------------------------------------------------------
 e---------------15----13--------------------------------------
 b--------------------------13---15---16---16---15--13--15-----
 g---10---12---------------------------------------------------
 d-------------------------------------------------------------
 a-------------------------------------------------------------
 E-------------------------------------------------------------
 {eot}
 
 Verse3:
 Show no fear, for she may fade away...
 In your hand, the birth of a new day...
 
 Rhymes that keep their secrets
 Will unfold behind the clouds
 And there upon the rainbow
 Is the answer to a neverending
 
 Stooryyyyy...
 
 {sot}
 Ah-ah-aah...ah-ah-aah...ah-ah-aah...
 {eot}
 Neverending stooryyyyy...
 
 {sot}
 Ah-ah-aah...ah-ah-aah...ah-ah-aah...
 {eot}
 Neverending stooryyyyy...
 
 {sot}
 Ah-ah-aah...ah-ah-aah...ah-ah-aah...
 {eot}
 Neverending stooryyyyy...
 
 {sot}
 Ah-ah-aah...ah-ah-aah...ah-ah-aah...
 {eot}
 
 Good Luck!