Song Information for Something About You

Song Title:Something About You
Artist:Lima, Johnny
Hits:1
{t:Something About You}
 {st:Johnny Lima}
 
 SOMETHING ABOUT YOU ?Johnny Lima
 http://www.johnnylima.com/fr_welcome.cfm
 
 Off the Made in California disc
 
 [G] [C] [Dsus4] [D] [G] [C] [Dsus4] [D] 
 {sot}
 E|---------------3---3to2-------------------3-3to2----|
 B|-------------2---2-----3----------------2--2----3---|
 G|----0----0---------------2----0----0-------------2--|
 D|--0----2---0----------------0----2---0--------------|
 A|2----3--------------------2----3--------------------|
 E|----------------------------------------------------|
 {eot}
 
 [C] [D] [C] [G] [Am] [D] 
 {sot}
 E|----------2-----------3-----------------------------2|
 B|----1-------3----------------------1*3--1*0-------3--|
 G|--0-----2--------0------0--------2-----2----2---2----|
 D|2-----0--------2---------------2--------------0------|
 A|-------------3-------2-------0-----------------------|
 E|-------------------3---------------------------------|
 {eot}
 
 Repeat above through verse
 
 Is it the [G]way you [C]make me [Dsus4]wonder [D] how my [G]life can [C]be so [Dsus4]blessed[D]
 With you [C]by my [D]side the [C]meaning of [G]life is [Am]starting to make perfect [D]sense
 (Switch to electric guitar)
 Is it the [G]way you [C]make me [Dsus4]feel [D] like Ive [G]never [C]felt [Dsus4]before[D]
 Could be the [C]way you [D]kiss what[G]ever it [C]is
 it [Am]always leaves me wanting [D]mo[Dsus4]re[D]
 
 Yeah [Am]baby I want so much [Dsus4]more[D]
 
 Theres something [G]about you when Im a[Em]round you
 The world is a [C]better place to [Dsus4]live[D]
 Theres something ab[G]out you Ill figure it o[Em]ut soon
 But right now I [C]dont know what it i[Dsus4]s[D]
 
 [G] [C] [D] 
 {sot}
 E|--------------|
 B|--------------|
 G|----0----0----|
 D|--0----2---0--|
 A|2----3--------|
 E|--------------|
 {eot}
 Theres s[C]omething a[D]bout you
 
 Is it the [G]way you [C]get ex[Dsus4]cited [D] when you [G]hear your [C]favorite [Dsus4]song[D]
 Is it the [C]words you [D]say to me [C]every [G]day to [Am]make me feel like I b[D]el[Dsus4]ong[D]
 I re[Am]ally feel like I be[D]long[Dsus4][D]
 
 Theres something a[G]bout you when Im ar[Em]ound you
 The world is a [C]better place to [Dsus4]live[D]
 Theres something a[G]bout you Ill figure it [Em]out soon
 
 But right now I [C]dont know what it i[Dsus4]s[D]
 Theres s[C]omething ab[D]out y[Em]ou
 
 SOLO
 [Em] [Bm] [C] [Am] [D] 
 [Am] [D] [G] [C] [Am] [D] 
 Theres something a[G]bout you when Im a[Em]round you
 The world is a [C]better place to [Dsus4]live[D]
 Theres something a[G]bout you Ill figure it [Em]out soon
 But right now I [C]dont know what it[Dsus4] is[D]
 
 Theres something a[G]bout you when Im a[Em]round you
 The world is a [C]better place to [Dsus4]live[D]
 Theres something a[G]bout you Ill figure it o[Em]ut soon
 But right now I [C]dont know what it [Dsus4]is[D]
 [G] [C] [D] 
 {sot}
 E|--------------|
 B|--------------|
 G|----0----0----|
 D|--0----2---0--|
 A|2----3--------|
 E|--------------|
 {eot}
 Theres s[C]omething a[D]bout you