Song Information for Every Girl

Song Title:Every Girl
Artist:Lillix
Hits:1
{t:Every Girl}
 {st:Lillix}
 
 Band - Lillix
 Song - Every Girl
 Album - Inside The Hollow
 Track - 3
 Bassist - Louise Burns
 
 Intro:
 Guitar only, Louise comes in with a slide at 00:09
 [G-----] 
 [D-----] 
 [A-----] 
 [E-17/-] 
 Then
 
 {sot}
 G---------------------------------|
 D---------------------------------|
 A-0-0-000-0-0-000-5-5-555-7-7-777-|
 E---------------------------------| x2
 {eot}
 
 Then
 
 {sot}
 G-----------------|
 D-----------------|
 A-0-0-0-0-0-0-03--|
 E-----------------| x1
 {eot}
 
 Verse 1
 
 {sot}
 G----------------------------------------------------------------|
 D----------------------------------------------------------------|
 A-0-0-000-0-0-000-------------------------3-32-2-0-0-000-0-0-03--|
 E-----------------2-2-222-2-2-222-1-1-111------------------------| x2
 {eot}
 
 Pre-Chorus 1:
 
 {sot}
 G-----------------------------------------------------------------|
 D-----------------------------------------------------------------|
 A-5-5-5-5-4-4-4-4-----0-2-4-5-4-2-5-5-5-5-4-4-4-4-9-7-5-4-5-4-2-0-|
 E-----------------2-4---------------------------------------------| x1
 G-----------------------------------------------------------------|
 D-----------------------------------------------------------------|
 A-5-5-5-5-4-4-4-4-----0-2-4-5-4-2-5-5-5-5-4-4-4-4-----------------|
 E-----------------2-4-----------------------------2-2-2-2-1---11--| x1
 {eot}
 
 Chorus 1:
 
 {sot}
 G---------------------------------|
 D---------------------------------|
 A-0-0-000-0-0-000-5-5-555-7-7-777-|
 E---------------------------------| x3
 G----------------------|
 D----------------------|
 A----------------------|
 E-5---3---2-------1----| x1
 {eot}
 
 End Chorus:
 
 {sot}
 G-----------------|
 D-----------------|
 A-0-0-0-0-0-0-03--|
 E-----------------| x1
 {eot}
 
 Verse 2: Same as Verse 1
 Pre-Chorus 2: Same as Pre-Chorus 1
 Chorus 2: Same as Chorus 1
 
 Bridge:
 
 {sot}
 G---------------------------------------------------------------------------------|
 D---------------------------------------------------------------------------------|
 A-00-0-00-0-00-0-00-0-----------------------------------------00-0-00-0-00-0-00-0-|
 E---------------------11-1-11-1-11-1-11-1-33-3-33-3-33-3-33-3---------------------|
 G------------------------------------------------------------------|
 D------------------------------------------------------------------|
 A-0000000000000000-------------------------------------------------|
 E-----------------111111111111111133333333333333330000000000000000-|
 {eot}
 
 STOP!
 
 Bass comes back in at 2:40 with the slide
 [G-----] 
 [D-----] 
 [A-----] 
 [E-17/-] 
 
 {sot}
 G-----------------------------------------------------------------|
 D-----------------------------------------------------------------|
 A-0-0-0-0-0-0-0-0-------------------------3-3-2-2-0-0-000-0-0-000-|
 E-----------------2-2-2-2-2-2-2-2-1-1-1-1-------------------------|
 {eot}
 
 Final Chorus:
 
 {sot}
 G---------------------------------|
 D---------------------------------|
 A-0-0-000-0-0-000-5-5-555-7-7-777-|
 E---------------------------------| x4
 G----------------------|
 D----------------------|
 A----------------------|
 E-5---3---2~~~~~~------| x1
 {eot}