Song Information for Mars Vs. Hollywood

Song Title:Mars Vs. Hollywood
Artist:Lillingtons, The
Hits:1
{t:Mars Vs. Hollywood}
 {st:The Lillingtons}
 
 Are tist: Thuh Lil' eeng tuns
 Chrak: M-ares verse es Hollee Would
 
 "Lillingtons again?", you ask. Well, yeah. It's good music with really-easy-
 -to-find-out chord progressions and solos. What can you do with 4 chords?
 Enjoy
 
 ---inch row x2
 [C] [F] [G] [C] [F] [G] 
 {sot}
 e|------------------------------|------------------------------|>
 B|------------------------------|------------------------------|>
 G|-5--5-5-5-5-5-5-5-5-5-5-------|-5--5-5-5-5-5-5-5-5-5-5-------|>
 D|-5--5-5-5-5-5-5-5-5-5-5-3--5--|-5--5-5-5-5-5-5-5-5-5-5-3--5--|>
 A|-3--3-3-3-3-3-3-3-3-3-3-3--5--|-3--3-3-3-3-3-3-3-3-3-3-3--5--|>
 E|------------------------1--3--|------------------------1--3--|>
 {eot}
 [A] [F] [G] [C] [F] [G] 
 {sot}
 >------------------------------|--------------------------------|
 >------------------------------|--------------------------------|
 >------------------------------|-5--5-5-5-5-5-5-----------------|
 >-7--7-7-7-7-7-7-7-7-7-7-3--5--|-5--5-5-5-5-5-5-3-3-3-3-5-5-5-5-|
 >-7--7-7-7-7-7-7-7-7-7-7-3--5--|-3--3-3-3-3-3-3-3-3-3-3-5-5-5-5-|
 >-5--5-5-5-5-5-5-5-5-5-5-1--3--|----------------1-1-1-1-3-3-3-3-|
 {eot}
 
 ---vurs x2
 [C] [F] [G] [C] [F] [G] 
 {sot}
 e|--------------------------------|--------------------------------|>
 B|--------------------------------|--------------------------------|>
 G|-5--5-5-5-5-5-5-----------------|-5--5-5-5-5-5-5-----------------|>
 D|-5--5-5-5-5-5-5-3-3-3-3-5-5-5-5-|-5--5-5-5-5-5-5-3-3-3-3-5-5-5-5-|>
 A|-3--3-3-3-3-3-3-3-3-3-3-5-5-5-5-|-3--3-3-3-3-3-3-3-3-3-3-5-5-5-5-|>
 E|----------------1-1-1-1-3-3-3-3-|----------------1-1-1-1-3-3-3-3-|>
 {eot}
 [A] [F] [G] [C] [F] [G] 
 {sot}
 e|--------------------------------|--------------------------------|
 B|--------------------------------|--------------------------------|
 G|--------------------------------|-5--5-5-5-5-5-5-----------------|
 D|-7--7-7-7-7-7-7-3-3-3-3-5-5-5-5-|-5--5-5-5-5-5-5-3-3-3-3-5-5-5-5-|
 A|-7--7-7-7-7-7-7-3-3-3-3-5-5-5-5-|-3--3-3-3-3-3-3-3-3-3-3-5-5-5-5-|
 E|-5--5-5-5-5-5-5-1-1-1-1-3-3-3-3-|----------------1-1-1-1-3-3-3-3-|
 {eot}
 
 It's Mars versus Hollywood, a clash of freaks
 See the Martians shoot 'em as they run through the streets
 Hey it's Mars versus Hollywood, they're having a good time
 
 It's Mars versus Hollywood, who's gonna win?
 I'll put my money on the little green men
 Hey it's Mars versus Hollywood, they're having a good time
 
 ---pree core us
 [F] [C] [G] 
 {sot}
 e|--------------------------------------------------------------|
 B|--------------------------------------------------------------|
 G|--------------------------------5--5-5-5-5-5-5----------------|
 D|-3--3-3-3-3-3-3-3-3-3-3-3-3-3-3-5--5-5-5-5-5-5-5--5-5-5-5-5-5-|
 A|-3--3-3-3-3-3-3-3-3-3-3-3-3-3-3-3--3-3-3-3-3-3-5--5-5-5-5-5-5-|
 E|-1--1-1-1-1-1-1-1-1-1-1-1-1-1-1----------------3--3-3-3-3-3-3-|
 {eot}
 [A] [F] [G] 
 {sot}
 E|--------------------------------------------------------------|
 B|--------------------------------------------------------------|
 G|--------------------------------------------------------------|
 D|-7--7-7-7-7-7-7-7-7-7-7-7-7-7-7-3--3-3-3-3-3-3-5--5-5-5-5-5-5-|
 A|-7--7-7-7-7-7-7-7-7-7-7-7-7-7-7-3--3-3-3-3-3-3-5--5-5-5-5-5-5-|
 E|-5--5-5-5-5-5-5-5-5-5-5-5-5-5-5-1--1-1-1-1-1-1-3--3-3-3-3-3-3-|
 {eot}
 
 And I wanna see the Martians attack with a death ray
 So I'm packin' my bags and headin' out to LA
 
 ---core us
 [C] [G] [A] [F] 
 {sot}
 e|-------------------------------------------------------------|
 B|-------------------------------------------------------------|
 G|-5--5-5-5-5-5-5----------------------------------------------|
 D|-5--5-5-5-5-5-5-5--5-5-5-5-5-5-7--7-7-7-7-7-7-3--3-3-3-3-3-3-|
 A|-3--3-3-3-3-3-3-5--5-5-5-5-5-5-7--7-7-7-7-7-7-3--3-3-3-3-3-3-|
 E|----------------3--3-3-3-3-3-3-5--5-5-5-5-5-5-1--1-1-1-1-1-1-|
 {eot}
 [C] [G] [F] [G] 
 {sot}
 e|-------------------------------------------------------------|
 B|-------------------------------------------------------------|
 G|-5--5-5-5-5-5-5----------------------------------------------|
 D|-5--5-5-5-5-5-5-5--5-5-5-5-5-5-3--3-3-3-3-3-3-5--5-5-5-5-5-5-|
 A|-3--3-3-3-3-3-3-5--5-5-5-5-5-5-3--3-3-3-3-3-3-5--5-5-5-5-5-5-|
 E|----------------3--3-3-3-3-3-3-1--1-1-1-1-1-1-3--3-3-3-3-3-3-|
 {eot}
 
 In Mars versus Hollywood. In Mars versus Hollywood
 Who cares about some movie they made when the Martians start to invade
 
 ---pree sow low
 [C] [F] [G] [C] 
 {sot}
 e|--------------------------------|
 B|--------------------------------|
 G|-5--5-5-5-5-5-5-5-5-5-5-------5-| DRUMS
 D|-5--5-5-5-5-5-5-5-5-5-5-3--5--5-| !!!
 A|-3--3-3-3-3-3-3-3-3-3-3-3--5--3-|
 E|------------------------1--3----|
 {eot}
 
 ---sow low x2
 
 {sot}
 e|-------------|--------------|-------------|-----------------|
 B|-------------|--------------|-------------|-----------------|
 G|-5--7--9--7--|-10--7--9--7--|-5--7--9--7--|-5---7---9-7-9-7-| G|-3~~
 D|-------------|--------------|-------------|-----------------| X2
 A|----(X3)-----|--------------|-----(x2)----|-----------------|
 E|-------------|--------------|-------------|-----------------|
 {eot}
 
 ---play inch row x2
 
 ---vurs
 It's [C]Mars versus Hollywood, a [F]clash of f[G]reaks.
 See the [C]Martians shoot 'em as they [F]run through the [G]streets
 Hey it's [A]Mars versus Hollywood, they're [F]having a g[G]ood t[C]ime[F][G]
 It's [C]Mars versus Hollywood, who's [F]gonna [G]win?
 I'll [C]put my money on the [F]little green [G]men
 Hey it's [A]Mars versus Hollywood, they're [F]having a g[G]ood ti[C]me[F][G]
 
 ---pree core us
 And I [F]wanna see the Martians attack with a death [C]raaaaaaaaa[G]aay
 So I'm [A]packin' my bags and headin' out to [F]L- [G]A
 
 ---core us
 In [C]Mars versus [G]Hollywood. It's[A] Mars versus[F] Hollywood
 Who [C]cares uh- [G]bout some movie they [F]made when the [G]Martians start to in-
 [C]Mars versus [G]Hollywood. It's [A]Mars versus [F]Hollywood
 Who [C]cares uh- [G]bout some movie they [F]made when the [G]Martians start to in-
 
 ---owch row
 [C] [G] [F] [C] [F] [G] [C] 
 {sot}
 e|--------------------------------------------------------------| |----------|
 B|--------------------------------------------------------------| |----------|
 G|-5--5-5-5-5-5-5-5-5-5-5-5-5-5-5-------------------------------| |-5~-----5-|
 D|-5--5-5-5-5-5-5-5-5-5-5-5-5-5-5-5--5-5-5-5-5-5-3--3-3-3-3-3-3-|x4 |-5~-3-5-5-|
 A|-3--3-3-3-3-3-3-3-3-3-3-3-3-3-3-5--5-5-5-5-5-5-3--3-3-3-3-3-3-| |-3~-3-5-3-|
 E|--------------------------------3--3-3-3-3-3-3-1--1-1-1-1-1-1-| |----1-3---|
 {eot}
 
 -vade!!!! When the Martians start to in-
 -vade!!!! When the Martians start to in-
 -vade!!!! When the Martians start to in-
 -vade!!!! When the Martians take 'em all away
 
 
 And that's about it. 1 verse, 1 pre chorus, 1 chorus, and 1 riff.
 Like I said:What can YOU do with four chords?
 
 Uncle Andy's Movie Quiz!!
 
 "If you don't get on that plane you'll regret it. Maybe not today, maybe not
 tomorrow, but soon and for the rest of your life."
 
 Super easy. What movie is that from?