Song Information for Robots in My Dreams

Song Title:Robots in My Dreams
Artist:
Hits:1
{t:Robots in My Dreams}
 {st:The Lillingtons}
 
 
 {sot}
 -------------------------------------------------------------------------------
 -------------------------------------------------------------------------------
 {eot}
 
 Tuning: E B G D A E
 
 Chords:
 [A] [D] [E] [F#m] 
 {sot}
 e|----------------------------------------|
 B|----------------------------------------|
 G|-----7---9------------------------------|
 D|-7---7---9---4--------------------------|
 A|-7---5---7---4--------------------------|
 E|-5-----------2--------------------------|
 {eot}
 
 Intro:
 | A | A | D | E |
 
 Intro Riff:
 [A] [A] [D] [E] 
 {sot}
 e |-----------------|-----------------|-0-0-0-0-0---0-0-|-0-|
 B |-2-2-2-2-2-2-2-2-|-3-3-2-2-0-0-----|-----------0-----|---|
 G |-----------------|-------------2-2-|-----------------|---|
 D |-----------------|-----------------|-----------------|---|
 A |-----------------|-----------------|-----------------|---|
 E |-----------------|-----------------|-----------------|---|
 {eot}
 
 Verse:
 Donā??[A]t wanna go to work today
 Donā??[D]t wanna go to work a[E]t all
 [A]I donā??t wanna punch the clock
 [D]I just wanna punch the [E]wall
 [A]Well Iā??m gonna take a walk
 [D]Gonna leave it all be[E]hind
 [A]Well Iā??ve gotta clear my head
 Be[D]fore you brainwash my [E]mind
 
 Chorus:
 And [A]I donā??t wanna en[D]d up
 Donā??[F#m]t wanna end up like th[E]e robots in myā?¦
 [A]I donā??t wanna en[D]d up
 Donā??[F#m]t wanna end up like the robots in m[E]y dreams