Song Information for Don’t Trust the Humanoids

Song Title:Don’t Trust the Humanoids
Artist:Lillingtons, The
Hits:1
{t:Don??t Trust the Humanoids}
 {st:The Lillingtons}
 
 Song number four. I'm aware that my tabs aren't very popular... maybe that's
 because I only tab not very popular bands...oh well, this one is for those
 who like melodic punk bands who sing about horror and sci-fi.
 ---intro
 [C#] [D] 
 {sot}
 e|---------------------------------|
 B|---------------------------------|
 G|-6/7-7-7-7-7-7-7-7-7-7-7-7-7-7-7-|
 D|-6/7-7-7-7-7-7-7-7-7-7-7-7-7-7-7-| X4
 A|-4/5-5-5-5-5-5-5-5-5-5-5-5-5-5-5-|
 E|---------------------------------|
 {eot}
 
 ---verse
 [D] [G] [A] [D] 
 {sot}
 e|-----------------------------------------------------------------|
 B|-----------------------------------------------------------------|
 G|-7-7-7-7-7-7-7-7-7-7-7-7-7-7-7-7-----------------7-7-7-7-7-7-7-7-|
 D|-7-7-7-7-7-7-7-7-7-7-7-7-7-7-7-7-5-5-5-5-7-7-7-7-7-7-7-7-7-7-7-7-| X4
 A|-5-5-5-5-5-5-5-5-5-5-5-5-5-5-5-5-5-5-5-5-7-7-7-7-5-5-5-5-5-5-5-5-|
 E|---------------------------------3-3-3-3-5-5-5-5-----------------|
 {eot}
 
 Don't trust humanoids; they'll stab you in the back
 Or chop you into pieces and put you in a sack
 Don't trust humanoids; they're from outer space
 So toss me the old death ray and I'll put 'em in their place
 
 ---chorus
 [G] [A] [D] [B] [G] [A] [D] 
 {sot}
 e|----------------------------------------------------------------|
 B|--------------------*--------*--------------------------+-------|
 G|--*--------*-------7--------4---------*--------*-------7--------| *=8
 D|-5--------7--------7--------4--------5--------7--------7--------| +=16
 A|-5--------7--------5--------2--------5--------7--------5--------|
 E|-3--------5--------------------------3--------5-----------------|
 {eot}
 Well you're [G]just another [A]sh*thead. And I'm [D]not a part of your [B]plan
 I'm gonna [G]throw you in the road. And [A]run you over with my [D]van
 
 ---interlude
 [C#] [D] 
 {sot}
 e|---------------------------------|
 B|---------------------------------|
 G|-6/7-7-7-7-7-7-7-7-7-7-7-7-7-7-7-|
 D|-6/7-7-7-7-7-7-7-7-7-7-7-7-7-7-7-| X4
 A|-4/5-5-5-5-5-5-5-5-5-5-5-5-5-5-5-|
 E|---------------------------------|
 {eot}
 
 ---verse
 [D] [G] [A] [D] 
 {sot}
 e|-----------------------------------------------------------------|
 B|-----------------------------------------------------------------|
 G|-7-7-7-7-7-7-7-7-7-7-7-7-7-7-7-7-----------------7-7-7-7-7-7-7-7-|
 D|-7-7-7-7-7-7-7-7-7-7-7-7-7-7-7-7-5-5-5-5-7-7-7-7-7-7-7-7-7-7-7-7-| X4
 A|-5-5-5-5-5-5-5-5-5-5-5-5-5-5-5-5-5-5-5-5-7-7-7-7-5-5-5-5-5-5-5-5-|
 E|---------------------------------3-3-3-3-5-5-5-5-----------------|
 {eot}
 
 Don't trust humanoids; they'll stab you in the back
 Or chop you into pieces and put you in a sack
 Don't trust humanoids; they'll kick you in the face
 So toss me the old death ray and I'll put 'em in their place
 
 ---chorus X2
 [G] [A] [D] [B] [G] [A] [D] 
 {sot}
 e|----------------------------------------------------------------|
 B|--------------------*--------*--------------------------+-------|
 G|--*--------*-------7--------4---------*--------*-------7--------|
 D|-5--------7--------7--------4--------5--------7--------7--------|
 A|-5--------7--------5--------2--------5--------7--------5--------|
 E|-3--------5--------------------------3--------5-----------------|
 {eot}
 Well you're [G]just another [A]sh*thead. And I'm [D]not a part of your [B]plan
 I'm gonna [G]throw you in the road. And [A]run you over with my [D]van
 
 ---outro
 [C#] [D] 
 {sot}
 e|---------------------------------| |------|
 B|---------------------------------| |------|
 G|-6/7-7-7-7-7-7-7-7-7-7-7-7-7-7-7-| |--7~--|
 D|-6/7-7-7-7-7-7-7-7-7-7-7-7-7-7-7-| X4 |--7~--|
 A|-4/5-5-5-5-5-5-5-5-5-5-5-5-5-5-5-| |--5~--|
 E|---------------------------------| |------|
 {eot}
 
 That's it. Another lazily written but awesome song!
 Nothing else to say... penis, poopoo, baby balls...