Song Information for I Don’t Think She Cares

Song Title:I Don’t Think She Cares
Artist:
Hits:1
{t:I Don??t Think She Cares}
 {st:The Lillingtons}
 
 
 {sot}
 -------------------------------------------------------------------------------
 {eot}
 I Don't Think She Cares - The Lillingtons
 
 {sot}
 -------------------------------------------------------------------------------
 {eot}
 Tabbed by: squintyjoefan
 E-mail: squintyjoefan@hotmail.co.uk
 
 Track 2 from the album 'Shit Out of Luck'
 
 Tuning: Standard (EADGBe)
 
 Song order
 
 Intro x2
 Intro with Riff x 4
 Verse x 8
 Chorus x 3
 Chorus End
 Intro with Riff x 4
 Verse x 8
 Chorus x 3
 Chorus End
 Intro with Riff x 4
 
 Intro/Verse
 
 
 {sot}
 e|---------------------------------------------------------------------------|
 B|---------------------------------------------------------------------------|
 G|--7-777777-7-777777--------------------------------------------------------|
 D|--7-777777-7-777777--5-555555--7-777777------------------------------------|
 A|--5-555555-5-555555--5-555555--7-777777------------------------------------|
 E|---------------------3-333333--5-555555------------------------------------|
 {eot}
 [D5] [D5] [G5] [A5] 
 Riff
 
 
 {sot}
 e|---------------------------------------------------------------------------|
 B|---------------------------------------------------------------------------|
 G|---------------------------------------------------------------------------|
 D|------------7--5--4---2-22-222---------------------------------------------|
 A|--5-55-555----------------------0-00-0--4-444------------------------------|
 E|---------------------------------------------------------------------------|
 {eot}
 
 Chorus
 
 
 {sot}
 e|---------------------------------------------------------------------------|
 B|---------------------------------------------------------------------------|
 G|-------------7-777777------------------------------------------------------|
 D|--5-555555---7-777777--7-777777---7-7777777----------5------7--------------|
 A|--5-555555---5-555555--7-777777---7-7777777----------5------7--------------|
 E|--3-333333-------------5-555555---5-5555555----------3------5--------------|
 {eot}
 [G5] [D5] [A5] [A5] End[G5] chorus[A5] on these chords
 
 ************************************
 
 | / slide up
 | \ slide down
 | h hammer-on
 | p pull-off
 | ~ vibrato
 | + harmonic
 | x Mute note
 | b Bend
 | pb Pre-bend
 | br Bend release
 | pbr Pre-bend release
 | brb Bend release bend
 
 ************************************