Song Information for Right Above It

Song Title:Right Above It
Artist:
Hits:1
{t:Right Above It}
 {st:Lil Wayne}
 
 Song: Right Above It
 
 CAPO 4 :: STANDARD TUNING (EADGBe)
 
 
 {sot}
 ---------------------------------------------------------
 {eot}
 
 Chord progression throughout, relative to capo:
 
 
 {sot}
 |-2-|-0-|-3-|-X-X-|
 |-3-|-2-|-0-|-X-X-|
 |-4-|-2-|-0-|-7-6-|
 |-4-|-2-|-0-|-7-7-|
 |-2-|-0-|-2-|-5-4-|
 |-X-|-X-|-3-|-X-X-|
 {eot}
 [Bm] [A] [G] [D] [C#/D] 
 For example:
 
 [Bm] Now tell me how you love it
 
 You know yo[A]u at the top when only heaven?s right above it
 
 We on, [G]It?s Young Money, motherfucker
 
 If you ain?t [D5]runnin? wit it, run from it, motherfucker[C#/D], all right
 
 [Bm] Now somebody show some money in this bitch
 
 And I got my[A] B?s with me like some honey in this bitch, ya dig?[G]
 
 I got my gun in my boo purse, And I don?t bust back, because I s[D]hoot first...[C#/D]
 
 And so on.
 
 
 {sot}
 ---------------------------------------------------------
 {eot}
 
 Opening horn riff, NOT relative to capo:
 
 
 {sot}
 |---------------|--------------|--------------|-------------|--------------|
 |------9-11-----|-----9-11-----|-----9-11-----|-----9-11----|------9-9-----|
 |------------11-|-----------11-|-----------11-|----------11-|---11---------|
 |---------------|--------------|--------------|-------------|--------------|
 |---------------|--------------|--------------|-------------|--------------|
 |---------------|--------------|--------------|-------------|--------------| x2
 ---------------------------------------------------------
 {eot}
 
 Basic main riff, relative to capo:
 
 
 {sot}
 |------7-5-5-2-2-0-0---|
 |--------------------3-|
 |----------------------|
 |----------------------|
 |----------------------|
 |----------------------|
 {eot}
 
 Or, to add a harmony, you can play it like this:
 
 
 {sot}
 |------7-5-5-2-2-0-0---|
 |--------3-3-3-3-3-3-3-|
 |------7---------------|
 |----------------------|
 |----------------------|
 |----------------------|
 ---------------------------------------------------------
 {eot}
 
 That's really all there is to it.