Song Information for Tie My Hands

Song Title:Tie My Hands
Artist:Lil Wayne
Hits:1
{t:Tie My Hands}
 {st:Lil Wayne}
 
 This is pretty much the whole song. I don't know if the notes on the E string are
 played on the guitar or the bass, but they are definitely played. Enjoy!!
 
 (Chords are just basic ones)
 
 ( Tab[Em] from: http[D]://www.guitartabs.cc/t[F#7]abs/l/lil_way[Bm]ne/tie_my_hands_tab_ver_7.html )
 
 {sot}
 e|--------------------------------|---------------------|
 B|--------------------------------|---------------------|
 G|---12---14----11----11p9--------|---/9-----11----7----|
 D|---------------------------12---|---/8----------------|
 A|--------------------------------|---------------------|
 E|---12--(12)--(10)---(10)--------|----------------7----|
 {eot}
 
 
 [Em] [D] [F#7][Bm]
 
 {sot}
 e|----------------------------------|---------------------|
 B|----------------------------------|---------------------|
 G|------12---14----11----11p9-------|---/9-----11----7----|
 D|-----------------------------12---|---/8----------------|
 A|----------------------------------|---------------------|
 E|--/12-----(12)--(10)---(10)-------|----------------7----|
 {eot}
 
 
 I hope this helps!
 
 [-MB]