Song Information for Falcon Suite

Song Title:Falcon Suite
Artist:
Hits:1
{t:Falcon Suite}
 {st:Like Wendy}
 
 Am Dm X8
 
 [C] [Am] [C] [Am] [Em] [F] [G] [F] [Am] 
 01:08
 SOLO 1 - Am Dm X4 C Am C Am Em F G F G Am
 *******
 
 {sot}
 e|----------|----------|---------15-13-12-----|---------------b--r-|---------|----------------------------|
 B|----------|----------|-12-13----------------|-12-13--12-13-15----|---------|----------------------------|
 G|-9--12-10-|-9--12-14-|-------------------14-|--------------------|-9-10-12-|----7-9-10-12~~~-10-9-9---7-|
 D|----------|----------|----------------------|--------------------|---------|-10-------------------------|
 A|----------|----------|----------------------|--------------------|---------|----------------------------|
 E|----------|----------|----------------------|--------------------|---------|----------------------------|
 {eot}
 
 [b] [b] 
 {sot}
 e|-------------|---7--8--10----8--7-|
 B|---------s---|-8------------------|
 G|-5-4--5--\-7-|--------------------|
 D|-------------|--------------------|
 A|-------------|--------------------|
 E|-------------|--------------------|
 --------------------------------------------------
 {eot}
 02:08
 VOLUME SOLO = * Vol
 ************ 03:02
 RIFF 1 RIFF 2
 ******* *******
 *b *brp b b b br
 
 {sot}
 e|-12---12---10-|| |-10-10-12-10-12-|-10-12-12-10--15-|-12-12-12---10-10-12-12-12-10-|----10-12-13-15---|
 B|--------------|| |----------------|-----------------|------------------------------|-13---------------|
 G|--------------|| |----------------|-----------------|------------------------------|------------------|
 D|--------------|| |----------------|-----------------|------------------------------|------------------|
 A|--------------|| |----------------|-----------------|------------------------------|------------------|
 E|--------------||X6 |----------------|-----------------|------------------------------|------------------|
 {eot}
 |
 | RIFF 2 continue
 | b b b r h brb
 
 {sot}
 After 2 e|-15-15-15--12-13-12-|-12-13--------------|--h---8-10-12-13-13-|
 | B|--------------------|-------15-13-----10-|-8-10---------------|
 | G|--------------------|--------------12----|--------------------|
 | D|--------------------|--------------------|--------------------|
 | A|--------------------|--------------------|--------------------|
 | E|--------------------|--------------------|--------------------|
 {eot}
 
 Come in with lyrics on the 3rd RIFF 1 & RIFF 2
 VERSE 1 = continue with the vol solo above, until it changes.
 ********
 The [Dm]air was thin and cold
 And found the [G]other side of me
 My [Dm]face got churped of hope
 In the [G]darkness lay my dreams
 
 CONTINUE WITH RIFF 2
 *********************
 In [Am]silence they [Dm]waited
 They [Dm]said they knew my [G]feelings
 My [Am]chances then [Dm]evaded
 The [Dm]void I could not [G]see
 
 CONTINUE WITH RIFF 2
 **********************
 They [Dm]plundered over garden corners
 In [G]wishful clarity
 Where [Dm]they have got you hoping you
 No [G]you might could escape
 
 [Dm] [G] [Dm] 
 
 {sot}
 --------------------------------------------------
 {eot}
 03:33
 BREAK
 ******
 
 
 {sot}
 --------------------------------------------------
 {eot}
 03:55
 [Dm]Is there someone out there VOL = * play this with this veres.
 C * * * * * *
 
 {sot}
 Who's into showing you e|--*----15--17---*----15--17---*---15--17---*-|
 Am B|-15------------13------------15-----------13-|
 I really pondered on here G|---------------------------------------------|
 C D|---------------------------------------------|
 Swallowed by my own intentions A|---------------------------------------------|
 Dm E|---------------------------------------------|X2
 {eot}
 Whispers in my ear
 [C]Talking in the room
 The [Dm]sounds of something searching contact
 [C]Stranger from within
 
 
 {sot}
 --------------------------------------------------
 {eot}
 04:25
 Play This with this verse.
 GUITAR 1
 
 {sot}
 e|-------------|-------------|----------------------|
 B|-------------|-------------|----------------------|
 G|-------------|-------------|----------------------|
 D|-10--9-10-12-|-10--9-10-12-|-10--7---h--3-5-------|
 A|-8---7-8--10-|-8---7-8--10-|-8---5--3-5-----5-5-3-|
 E|-------------|-------------|----------------------|
 {eot}
 In the dark | |
 Be on guard |GUITAR 2 |
 
 {sot}
 Some seen missing colors e|-------------|-------------|---------h--1-3-------|
 Broken habits steal the fever run B|-------------|-------------|--------1-3-----3-3-1-|
 G|-------------|-------------|----------------------|
 D|-3---2-3--5--|-3---2-3--5--|-3---0----------------|
 A|-------------|-------------|----------------------|
 E|-------------|-------------|----------------------|
 --------------------------------------------------
 {eot}
 04:40
 Dm VOL = * play this with this veres.
 Is there someone out there * * * * * *
 
 {sot}
 C e|--*----15--17---*----15--17---*---15--17---*-|
 I don't believe at all B|-15------------13------------15-----------13-|
 Dm G|---------------------------------------------|
 Loose imagination D|---------------------------------------------|
 C A|---------------------------------------------|
 A seeker then my own intentions E|---------------------------------------------|X2
 {eot}
 [Dm]Stranger from within
 A [C]voice holds sound away
 [Dm]Whispers in my ears
 [C]Is there really someone out there
 
 
 
 {sot}
 --------------------------------------------------
 {eot}
 04:25
 Play This with this verse.
 GUITAR 1
 
 {sot}
 e|-------------|-------------|----------------------|
 B|-------------|-------------|----------------------|
 G|-------------|-------------|----------------------|
 D|-10--9-10-12-|-10--9-10-12-|-10--7---h--3-5-------|
 A|-8---7-8--10-|-8---7-8--10-|-8---5--3-5-----5-5-3-|
 E|-------------|-------------|----------------------|
 {eot}
 In the dark | |
 Be on guard |GUITAR 2 |
 
 {sot}
 Some seen missing colors e|-------------|-------------|---------h--1-3-------|
 Broken habits steal the fever run B|-------------|-------------|--------1-3-----3-3-1-|
 G|-------------|-------------|----------------------|
 D|-3---2-3--5--|-3---2-3--5--|-3---0----------------|
 A|-------------|-------------|----------------------|
 E|-------------|-------------|----------------------|
 --------------------------------------------------
 {eot}
 05:31
 SMALL SOLO 2 Play this with the VERSE BELOW
 *************
 h p b h p h h h
 
 {sot}
 e|-10---8-10-10-10-8--10-8--8-8-8-|-8-8-7-8-7--7-7-5--5-5-7--7-7-----|---5-5--7-7--8-8--8-|-8-10--8-10--8-10-|
 B|--------------------------------|------------------------------8-8-|-8------------------|------------------|
 G|--------------------------------|----------------------------------|--------------------|------------------|
 D|--------------------------------|----------------------------------|--------------------|------------------|
 A|--------------------------------|----------------------------------|--------------------|------------------|
 E|--------------------------------|----------------------------------|--------------------|------------------|
 {eot}
 
 h h h h h h h h h h h h h h h h h h h
 
 {sot}
 e|-8-10--8-10--8-10--8-10--8-10-|-7-8--7-8--7-8--7-8--7-8--7-8--7-8--7-8-|-5-7--5-7--5-7--5-7--5-7--5-7-|
 B|------------------------------|----------------------------------------|------------------------------|
 G|------------------------------|----------------------------------------|------------------------------|
 D|------------------------------|----------------------------------------|------------------------------|
 A|------------------------------|----------------------------------------|------------------------------|
 E|------------------------------|----------------------------------------|------------------------------|
 {eot}
 
 h h h h h h h h h h h h h h h h h h
 
 {sot}
 e|-5-7--5-7-|-3-7--3-7--3-7--3-7--3-7--3-7--3-7--3-7-|-3-5--3-5--3-5--3-5--3-5--3-5--3-5--3-5-|--h----h----h--|
 B|----------|----------------------------------------|----------------------------------------|-5-6--5-6--5-6-|
 G|----------|----------------------------------------|----------------------------------------|---------------|
 D|----------|----------------------------------------|----------------------------------------|---------------|
 A|----------|----------------------------------------|----------------------------------------|---------------|
 E|----------|----------------------------------------|----------------------------------------|---------------|
 {eot}
 
 p p p p p p
 
 {sot}
 e|--h----h----h----h-----|--p---p----p----p-----p----p----8-7-8-7--10-7-10-7--8-7-8-7-7~~~-|
 B|-5-6--5-6--5-6--5-6--5-|-6-5-8-6--8-6-10-8--10-8-12-10-----------------------------------|
 G|-----------------------|-----------------------------------------------------------------|
 D|-----------------------|-----------------------------------------------------------------|
 A|-----------------------|-----------------------------------------------------------------|
 E|-----------------------|-----------------------------------------------------------------|
 {eot}
 
 b b b br b h p p s b
 
 {sot}
 e|-8--8--8--8-5-8--888--8-8-8-7-5-7-5---|-7-8-10-|-12-13-13-12-13\15--13-15-13-15-|
 B|------------------------------------8-|--------|--------------------------------|
 G|--------------------------------------|--------|--------------------------------|
 D|--------------------------------------|--------|--------------------------------|
 A|--------------------------------------|--------|--------------------------------|
 E|--------------------------------------|--------|--------------------------------|
 {eot}
 The [Dm]silence of this lonely road
 The [Am]stranger I appear
 Des[F]pair in this illusion are
 [G]Words that I have sinned for so long
 [Dm]Miles of hollow echos
 Were [Am]stones lie paved with tears
 The [F]solitude I search for
 Has [G]ended into fear and I am
 [Dm]Drowning in my hope for you
 My [Am]prayers belong to him
 If [F]only I could find some peace
 I [G]need someone to share my hope with
 
 [Dm] [Am] [F] [G] 
 
 {sot}
 --------------------------------------------------
 {eot}
 06:30
 VOL GUITAR = * Play this with this VERSE
 ***********
 Dm * * *
 
 {sot}
 The silence of this lonely road e|-10----8----7----*-|
 Am B|-----------------8-|
 The stranger I appear G|-------------------|
 F D|-------------------|
 Despair in this illusion are A|-------------------|
 G E|-------------------|X2
 {eot}
 The words that I have sinned for so long
 [Dm]Miles of hollow echos
 Were [Am]stones lie paved with tears
 The [F]solitude I search for
 Has [G]ended into fear
 
 
 {sot}
 --------------------------------------------------
 {eot}
 07:03
 Am F Dm Em e|--*-|
 Can I feel the choice within me B|-10-|
 Am F Dm Em G|----|
 What is Kim and what is Shawn D|----|
 Am F Dm Em A|----|
 I feel no pain, no pleasure steals me E|----|
 [Am]From this [F]world, I [Dm]can't [Em]escape
 No [Am]more
 
 
 {sot}
 --------------------------------------------------
 {eot}
 07:22
 SOLO 3 - Am Dm F Am
 *******
 
 {sot}
 e|-----------------|-----------------|-----------------------10-8-12----|----15-13-12--------------------|
 B|-----------------|-----------------|-------------8-10---10---------10-|-10----------15-13-12--13-12-13-|
 G|-----5--5----9---|-----5--5----9---|-------5-7-9----------------------|--------------------------------|
 D|-7-7------7----7-|-7-7------7----7-|-5-7-9----------------------------|--------------------------------|
 A|-----------------|-----------------|----------------------------------|--------------------------------|
 E|-----------------|-----------------|----------------------------------|--------------------------------|
 e|----10-----------------------|--b---br---|-----------------15-|--b---br---|--------------------|
 B|-10----13-12-10----10--------|-15--15-15-|-13-12-13--12-13----|-15--15-15-|-13-12-13--12-13-10-|
 G|----------------12----12-9~~-|-----------|--------------------|-----------|--------------------|
 D|-----------------------------|-----------|--------------------|-----------|--------------------|
 A|-----------------------------|-----------|--------------------|-----------|--------------------|
 E|-----------------------------|-----------|--------------------|-----------|--------------------|
 {eot}
 
 07:51
 
 {sot}
 e|--------------------8-8-7-7----|--------------------8-8-7-7----|--h------------|---p-----------|---p--------|
 B|------------10--8-8---------10-|------------10--8-8---------10-|-8-10-10--8-10-|-10-8-10--8-10-|-10-8-------|
 G|-----9--7-7--------------------|-----9--7-7--------------------|---------------|---------------|------9-7-9-|
 D|-7-7---------------------------|-7-7---------------------------|---------------|---------------|------------|
 A|-------------------------------|-------------------------------|---------------|---------------|------------|
 E|-------------------------------|-------------------------------|---------------|---------------|------------|
 --------------------------------------------------
 {eot}
 08:07
 BREAK
 ******
 [Am] 
 
 {sot}
 --------------------------------------------------
 {eot}
 08:30
 [Dm] I didn't under[C]stand
 Until I saw it [Dm]die
 I never rea[C]lized
 [Dm] So many time has [C]passed
 All over us [Dm]again
 So many years [C]alone
 
 
 {sot}
 ------------
 {eot}
 [Dm] I didn't know the [C]way
 When someone has to [Dm]go
 And someone stays be[C]hind
 [Dm] When everything is [C]gone
 We surely learn from [Dm]life
 That pain can turn to [C]anger
 
 
 {sot}
 ------------
 {eot}
 [Am] I was [G]drowning in my mind
 So [F]long, my [Em]friend
 Our [Dm]time has come
 [Am] When you had gone to [G]sleep to see the lights
 How [F]long, my [Em]friend
 Bef[Dm]ore it's time
 
 
 {sot}
 ------------
 {eot}
 [Dm] I never knew you [C]mind
 Until I saw it [Dm]change
 I didn't know the [C]sorrow
 [Dm] How could I be [C]afraid
 The things I tried to [Dm]say
 When there is no tom[C]orrow
 
 
 {sot}
 ------------
 {eot}
 [Am] I was [G]drowning in my mind
 So [F]long, my [Em]friend
 Our [Dm]time has come
 Am g
 I never saw the future in your eyes
 How [F]long, my [Em]friend
 Be[Dm]fore it comes
 
 [C] How long before it [Dm]comes
 
 [C] [Dm] 
 
 {sot}
 --------------------------------------------------
 {eot}
 10:49
 HEAVY CHORDS - Do barred chords for the heavy part? if you want.
 *************
 [Dm] [C] [Dm] [Em] 
 {sot}
 e|--------------|--------------|--------------|----------|
 B|-6-6--6-6---6-|-5-5--5-5---5-|-6-6--6-6---6-|-8-8--8-8-|
 G|-7-7--7-7---7-|-5-5--5-5---5-|-7-7--7-7---7-|-9-9--9-9-|
 D|-7-7--7-7---7-|-5-5--5-5---5-|-7-7--7-7---7-|-9-9--9-9-|
 A|-5-5--5-5---5-|-3-3--3-3---3-|-5-5--5-5---5-|-7-7--7-7-|
 E|--------------|--------------|--------------|----------|X2
 {eot}
 
 [D#m] [Ab] [D#m] [F] 
 {sot}
 e|-----------|-------------|-------------|-------------|
 B|-7--7-7--7-|-5-5--5-5--5-|-7-7--7-7--7-|-------------|
 G|-8--8-8--8-|-6-6--6-6--6-|-8-8--8-8--8-|-2-2--2-2--2-|
 D|-8--8-8--8-|-6-6--6-6--6-|-8-8--8-8--8-|-3-3--3-3--3-|
 A|-6--6-6--6-|-4-4--4-4--4-|-6-6--6-6--6-|-3-3--3-3--3-|
 E|-----------|-------------|-------------|-1-1--1-1--1-| 
 {eot}
 
 [Em] 
 
 {sot}
 --------------------------------------------------
 {eot}
 11:43
 HAMMOND ORGAN - Bm Am G
 **************
 [Bm]There's something hiding on the [Am]other side of [G]me
 What can it be [Bm]
 Maybe [Am]its a [G]dream
 [Bm]There's something turning in the [Am]other light of [G]day
 What can I say[Bm]
 When the [F#m]silence [G]breaks
 
 12:19
 VOLUME SOLO 4
 **************
 [Bm] [F#m] [G] [Bm] [Em] [F#m] [Em] [Bm] 
 {sot}
 e|--*----*----*-----p----------------|----------------------------------------|---------10-9----|
 B|-12~~-14~~-15~~-14-12-14~~~~-14----|-----------h----------------------------|----12-----------|
 G|--------------------------------11-|-11--11~~-9-11--------s--------9--11-11-|-11-----------11-|
 D|-----------------------------------|---------------11---11\12--11-----------|-----------------|
 A|-----------------------------------|----------------------------------------|-----------------|
 E|-----------------------------------|----------------------------------------|-----------------|
 --------------------------------------------------
 {eot}
 12:43
 HAMMOND ORGAN - Bm Am G
 **************
 [Bm]There's something running in the [Am]silence of my [G]mind
 What can I find[Bm]
 In the [F#m]sea of [G]lies
 [Bm]There's something pushing me in[Am]to another [G]phase
 What can I say'[Bm]
 Maybe [F#m]it's the [G]same
 
 
 {sot}
 --------------------------------------------------
 {eot}
 13:18
 VOLUME SOLO 4 - Play this with verse below
 **************
 [Bm] [F#m] [G] [Bm] [Em] [F#m] [Em] [Bm] 
 {sot}
 e|--*----*----*-----p----------------|----------------------------------------|---------10-9----|
 B|-12~~-14~~-15~~-14-12-14~~~~-14----|-----------h----------------------------|----12-----------|
 G|--------------------------------11-|-11--11~~-9-11--------s--------9--11-11-|-11-----------11-|
 D|-----------------------------------|---------------11---11\12--11-----------|-----------------|
 A|-----------------------------------|----------------------------------------|-----------------|
 E|-----------------------------------|----------------------------------------|-----------------|
 {eot}
 [Bm]Maybe it's the [F#m]sun ray
 Maybe it's a [G]Sunday
 [Bm] Maybe it's just ray
 Maybe its a [F#m]compare
 Maybe it's the [Em]right way
 [Bm] I cannot surely say
 
 
 {sot}
 --------------------------------------------------
 {eot}
 13:43
 HAMMOND ORGAN
 **************
 
 Hello
 
 
 {sot}
 --------------------------------------------------
 {eot}
 13:54
 SOLO 5
 ******* HOLD BEND
 b b | | | | rb h h p
 
 {sot}
 e|-10----10-10-10-10-10-10--10-10-10-|-10-9-10-9-7-|-7-9-7-9-7----7-----------|------|------------|
 B|-----------------------------------|-------------|-----------10---10~-10--7-|-7107-|-7-7--7-7-7-|
 G|-----------------------------------|-------------|--------------------------|------|------------|
 D|-----------------------------------|-------------|--------------------------|------|------------|
 A|-----------------------------------|-------------|--------------------------|------|------------|
 E|-----------------------------------|-------------|--------------------------|------|------------|
 e|-----------------|--------|------------|-------------|-----------------|--------|------------|-------------|
 B|-7-7-7-7--7-7--7-|-7-7--7-|------------|-8-8--8-8--8-|-7-7-7-7--7-7--7-|-7-7--7-|------------|-8-8--8-8--8-|
 G|-----------------|--------|-9-9-9-9--9-|-------------|-----------------|--------|-9-9-9-9--9-|-------------|
 D|-----------------|--------|------------|-------------|-----------------|--------|------------|-------------|
 A|-----------------|--------|------------|-------------|-----------------|--------|------------|-------------|
 E|-----------------|--------|------------|-------------|-----------------|--------|------------|-------------|
 e|------|
 B|------|
 {eot}
 G|-*--s-|
 D|-9--\-|
 
 {sot}
 A|------|
 E|------|
 --------------------------------------------------
 {eot}
 14:25
 VOLUME SOLO 6
 **************
 [G] [Dm] [Am] [G] [Dm] [Am] [G] [F] [Am] [G] 
 {sot}
 e|--*----*---*-----*-|--*p----*p--|--*----*-|--------------------h-------b------------------------------|
 B|-15---15---13---12-|-10-8--10-8-|-13---12-|-12-13-15~~-15~~--13-15-15-15--15--13~~-13~~-13~~-13-15-12-|
 G|-------------------|------------|---------|-----------------------------------------------------------|
 D|-------------------|------------|---------|-----------------------------------------------------------|
 A|-------------------|------------|---------|-----------------------------------------------------------|
 E|-------------------|------------|---------|-----------------------------------------------------------|
 {eot}
 
 [F] [Am] [G] 
 {sot}
 e|---h------|-----------------|--------------------|------h------h--s------------------s------|
 B|-12-13-15-|---h-------------|---h-------------13-|-13-12-13--12-13\15--13--15--12--13\15-15-|
 G|----------|-12-14-14-12--12-|-12-14-14-14-12-----|------------------------------------------|
 D|----------|-----------------|--------------------|------------------------------------------|
 A|----------|-----------------|--------------------|------------------------------------------|
 E|----------|-----------------|--------------------|------------------------------------------|
 {eot}
 
 15:23
 Am h G F#m F
 
 {sot}
 e|-13--13--13-12-13-12-----------s-|-----------h------|---h------|---h------|
 B|---------------------15--15--17\-|-10--10--12-13----|-12-13----|-12-13----|
 G|---------------------------------|---------------10-|-------10-|-------10-|
 D|---------------------------------|------------------|----------|----------|
 A|---------------------------------|------------------|----------|----------|
 E|---------------------------------|------------------|----------|----------|
 --------------------------------------------------
 {eot}
 15:41
 KEYBOARD
 *********
 
 
 {sot}
 --------------------------------------------------
 {eot}
 15:55
 [F]I Know your [G]right
 There's no [Am]hint
 To the [G]story I forgot
 [F] What it's [G]like
 F Right Hand Mute
 
 {sot}
 When we fight e|----------------|---h---------------|
 G B|-13-12-10----10-|-12-13-12-10----10-|
 Through the mind G|----------12----|-------------12----|Continue
 F G D|----------------|-------------------|
 F A|----------------|-------------------|
 There's no E|----------------|-------------------|
 {eot}
 To the [G]story I forgot
 [F] What it's [G]like
 When we [F]fight
 Through the [G]mind
 
 
 {sot}
 --------------------------------------------------
 {eot}
 16:51
 SOLO 7 Am G F#m F Em
 ******* h s s h
 
 {sot}
 e|-10--12--13-|-13--13-12-13-12-10--10-\7-7-\5-5-|-7-7-8----|-7--8----|
 B|------------|----------------------------------|--------6-|-------5-|
 G|------------|----------------------------------|----------|---------|
 D|------------|----------------------------------|----------|---------|
 A|------------|----------------------------------|----------|---------|
 E|------------|----------------------------------|----------|---------|
 {eot}
 
 ACOUSTIC - Em C Bm G
 Not sure if this deep sounding instrument is a guitar, but i wrote it for it anyway
 17:20
 
 {sot}
 e|---------|-------|-------|-------|-------|-------|-------|-------|-------|-------|-------|---------|
 B|---------|-------|-------|-------|-------|-------|-------|-------|-------|-------|-------|---------|
 G|---------|-------|-------|-------|-------|-------|-------|-------|-Keep playing this while another-|
 D|---------|-------|-------|-------|-------|-------|-------|-------|--------guitar comes in----------|
 A|-----7-7-|---7-7-|---7-7-|-------|---7-7-|---7-7-|---7-7-|-------|---7-7-|---7-7-|---7-7-|---------|
 E|-0-7-----|-7-----|-7-----|-7-5-0-|-7-----|-7-----|-7-----|-7-5-0-|-7-----|-7-----|-7-----|-7-5-0---|
 {eot}
 
 17:34
 Slightly muted at first
 
 {sot}
 e|-----------------|--------------------|--------------------|-------------------|\
 B|-----------------|--------------------|--------------------|-------------------| \
 G|-----------------|-12----12-----12----|-14----14-----14----|-12----12----11----| \
 D|-14--14----14----|----14----14-----14-|----14----14-----14-|----14----14----12-| \
 A|--------14----14-|--------------------|--------------------|-------------------| \
 E|-----------------|--------------------|--------------------|-------------------| \
 {eot}
 Play these both
 With the verses below
 
 {sot}
 e|-----------------|--------------------|--------------------|-------------------| / X 4 1/2 times
 B|-----------------|--------------------|--------------------|-15-13-12----------| /
 G|-----------------|-12----12-----12----|-14----14-----14----|----------14-12-11-| /
 D|-14--14----14----|----14----14-----14-|----14----14-----14-|-------------------| /
 A|--------14----14-|--------------------|--------------------|-------------------| /
 E|-----------------|--------------------|--------------------|-------------------|/
 {eot}
 
 17:49
 [Em]Riding in [C]circles
 [Bm]Again we bel[G]ong to the [Em]light[C][Bm][G]
 [Em]Driving us [C]forward
 And [Bm]pulling us [G]into the [Em]night[C][Bm][G]
 [Em]Saved by [C]tomorrow
 The [Bm]light in the [G]morning sky [Em]cry's[C][Bm][G]
 [Em]Nothing is [Am]left
 But my [Bm]dreams will be [G]ever let [Em]right[C][Bm][G]
 
 [Em] [C] [Bm] [G] 
 
 {sot}
 --------------------------------------------------
 {eot}
 18:54
 SOLO 8 - Em C Bm G Am
 *******
 
 {sot}
 e|---------|------|---------------------|---------|------|---------------------|
 B|---------|------|---------------------|---------|------|---------------------|
 G|-9----11-|----9-|---------------------|-9----11-|----9-|---------------------|
 D|----9----|-12---|----7-9-7--9-10-9-10-|----9----|-12---|----7-9-7--9-10-9-10-|
 A|---------|------|-10------------------|---------|------|-10------------------|
 E|---------|------|---------------------|---------|------|---------------------|
 e|---------|------|---------------------|---------|------|-----------------------|---h------h----------|
 B|---------|------|---------------------|---------|------|--------------------12-|-10-12--10-12--12-12-|
 G|-9----11-|----9-|---------------------|-9----11-|----9-|-9-11-12--11-12-14-----|---------------------|
 D|----9----|-12---|----7-9-7--9-10-9-10-|----9----|-12---|-----------------------|---------------------|
 A|---------|------|-10------------------|---------|------|-----------------------|---------------------|
 E|---------|------|---------------------|---------|------|-----------------------|---------------------|
 {eot}
 
 19:34
 
 {sot}
 e|-----------------|----------|-------------------------|------------------------------------------------|
 B|-10----10--10-10-|----------|----------------10----10-|-12-12-12--10-----------------------------------|
 G|----12-----------|-12-11----|-9-11-12-11--12----12----|--------------12----------14--11--12--12-11--11-|
 D|-----------------|-------12-|-------------------------|-----------------12-12-12-----------------------|
 A|-----------------|----------|-------------------------|------------------------------------------------|
 E|-----------------|----------|-------------------------|------------------------------------------------|
 {eot}
 
 19:52
 
 {sot}
 e|--------------------------|----------|-------------------------|
 B|-12-12-12--10----10-10-10-|----------|----------------10----10-|
 G|--------------12----------|-12-11----|-9-11-12-11--12----12----|
 D|--------------------------|-------12-|-------------------------|
 A|--------------------------|----------|-------------------------|
 E|--------------------------|----------|-------------------------|
 e|---------------------------------------------------|
 B|-12-12-12--10--------------------------------------|
 G|--------------12----------14--11--11-12--12-11--11-|
 D|-----------------12-12-12--------------------------|
 A|---------------------------------------------------|
 E|---------------------------------------------------|
 {eot}
 
 Fade Out..............................................
 
 {sot}
 e|--------------------------|----------|-------------------------|
 B|-12-12-12--10----10-10-10-|----------|----------------10----10-|
 G|--------------12----------|-12-11----|-9-11-12-11--12----12----|
 D|--------------------------|-------12-|-------------------------|
 A|--------------------------|----------|-------------------------|
 E|--------------------------|----------|-------------------------|
 {eot}
 
 .....................................................
 
 {sot}
 e|---------------------------------------------------|
 B|-12-12-12--10--------------------------------------|
 G|--------------12----------14--11--11-12--12-11--11-|
 D|-----------------12-12-12--------------------------|
 A|---------------------------------------------------|
 E|---------------------------------------------------| 
 {eot}