Song Information for Colours Of The Summer

Song Title:Colours Of The Summer
Artist:Like Wendy
Hits:1
{t:Colours Of The Summer}
 {st:Like Wendy}
 
 MAIN PICKING PATTERN & STRUMMED
 ********************* *********
 [Em] [D] [Bm] [A] 
 {sot}
 e|-0-------0-----0-----0-----|-2-----2-----2-------2-----|-2--------------------2----|-0-----0-----0-----0-----|
 B|---0-------0-----0-----0---|---3-----3-----3-------3---|---3-----2------3-------2--|---0-----0-----0-----0---|
 G|-----0-------0-----0-----0-|-----2-----2-----2-------2-|-----4-----4------4-------4|-----6-----6-----6-----6-|
 D|-------2-------------------|-------------------0-------|-------4-----4------4------|-------------------------|
 A|---------------------------|---------------------------|---------------------------|-------------------------|
 E|---------------------------|---------------------------|---------------------------|-----------------------X2|
 ------------------------------
 {eot}
 VERSE 1 - INTRO PICKING
 ********
 [Em]All the colours of the summer
 A [D]breeze is in the air
 [Bm]Melodies of long forgotten [A]music in my ears
 I am [Em]standing by an open window
 [D]Memories are dear
 A [Bm]fragrance calls me from the outside
 I[A] am going there
 
 [Em] [D] [Bm] [A] 
 {sot}
 e|-0-------0-----0-----0-----|-2-----2-----2-------2-----|-2--------------------2----|-0-----0-----0-----0-----|
 B|---0-------0-----0-----0---|---3-----3-----3-------3---|---3-----2------3-------2--|---0-----0-----0-----0---|
 G|-----0-------0-----0-----0-|-----2-----2-----2-------2-|-----4-----4------4-------4|-----6-----6-----6-----6-|
 D|-------2-------------------|-------------------0-------|-------4-----4------4------|-------------------------|
 A|---------------------------|---------------------------|---------------------------|-------------------------|
 E|---------------------------|---------------------------|---------------------------|-----------------------X2|
 ------------------------------
 {eot}
 VERSE 2 - INTRO PICKING
 ********
 [Em]Here are all the joys of childhood
 [D]Where I knew no fear
 [Bm]Here is all the light that kept me [A]going through the years
 We had [Em]everything, no thought was captive
 [D]All those summer nights and beauti[Bm]ful
 
 the moon, your eyes, that picture
 [A]Now I go alone
 
 [Em] [D] [Bm] [A] 
 {sot}
 e|-0-------0-----0-----0-----|-2-----2-----2-------2-----|-2--------------------2----|-0-----0-----0-----0-----|
 B|---0-------0-----0-----0---|---3-----3-----3-------3---|---3-----2------3-------2--|---0-----0-----0-----0---|
 G|-----0-------0-----0-----0-|-----2-----2-----2-------2-|-----4-----4------4-------4|-----6-----6-----6-----6-|
 D|-------2-------------------|-------------------0-------|-------4-----4------4------|-------------------------|
 A|---------------------------|---------------------------|---------------------------|-------------------------|
 E|---------------------------|---------------------------|---------------------------|-----------------------X2|
 -------------------------------
 {eot}
 02:31
 PICKING SECTION
 ****************
 [Em] [Em] [Am] 
 {sot}
 e|---p----------|---p---------|---p-----------|---p---------|-7-----8------7---|-7-----8------7---|-7---8---7-|
 B|-12-8-----10-8|-12-8----10-8|-12-8-----10-8-|-12-8----10-8|---8-----8------8-|---8-----8------8-|-----------|
 G|------9-------|-------------|------9--------|-------------|-----9-----9------|-----9-----9------|-----------|
 D|--------9-----|-------9-----|--------9------|-------9-----|------------------|------------------|-----------|
 A|--------------|-------------|---------------|-------------|------------------|------------------|-----------|
 E|--------------|-------------|---------------|-------------|------------------|------------------|-----------|
 {eot}
 
 Em Em Am h p
 
 {sot}
 e|---p----------|---p---------|---p-----------|---p---------|-7-----8------7--|-7-----8------7-8-7|-----s--s--|
 B|-12-8-----10-8|-12-8----10-8|-12-8-----10-8-|-12-8----10-8|---8-----8------8|---8-----8---------|-8-7-\5-\3-|
 G|------9-------|-------------|------9--------|-------------|-----9-----9-----|-----9-----9-------|-----------|
 D|--------9-----|-------9-----|--------9------|-------9-----|-----------------|-------------------|-----------|
 A|--------------|-------------|---------------|-------------|-----------------|-------------------|-----------|
 E|--------------|-------------|---------------|-------------|-----------------|-------------------|-----------|
 -------------------------------
 {eot}
 03:01
 PICKING FOR CHORUS BELOW
 [Em] [C] [D] [Am] 
 {sot}
 e|---0------0------|---0------0-----|---0------0-----|---0------0-----|
 B|-----0------0----|-----1------1---|-----3------3---|-----0------0---|
 G|-------0------0--|-------0------0-|-------2------2-|-------2------2-|
 D|-2---------------|----------------|-0--------------|-2--------------|
 A|-----------------|-3--------------|----------------|----------------|
 E|-----------------|----------------|----------------|----------------|
 {eot}
 
 SMALL SOLO THAT GOES WITH THE PICKING ABOVE AND CHORUS BELOW *Vol
 * h h
 
 {sot}
 e|-7---7-8-7----------s-------------s---|-7--7-8-7----------s-------------s---|
 B|------------10-8--10\-12--10-8--10\-5-|-----------10-8--10\-12--10-8--10\-5-|
 G|--------------------------------------|-------------------------------------|
 D|--------------------------------------|-------------------------------------|
 A|--------------------------------------|-------------------------------------|
 E|--------------------------------------|-------------------------------------|
 e|---s--10--8-------s-------------s---|---s--10--8-------s-------------s----|
 B|-5-\---------10-10\-12--10-8--10\-5-|-5-\---------10-10\-12--10-8--10\-12-|
 G|------------------------------------|-------------------------------------|
 D|------------------------------------|-------------------------------------|
 A|------------------------------------|-------------------------------------|
 E|------------------------------------|-------------------------------------|
 {eot}
 
 CHORUS
 *******
 [Em] What you [C]live is what you [D]love is what you [Am]leave
 [Em] What you [C]give is watch it [D]grow is what you'll [Am]see
 I [Em]know [C]some things [D]are the same to [Am]me
 [Em]Cause [C]now some things [D]never cease to [A]be
 
 [Em] [C] [D] [Am] [Em] [C] [D] [Am] 
 
 
 {sot}
 ------------------------------
 {eot}
 03:55
 PICKING PATTERN FOR SOLO
 *************************
 [Em] [C] [D] 
 {sot}
 e|-------------|-------------|-------0-----|-------0-----|
 B|-------0-----|-------0-----|-----3---3---|-----1---1---|
 G|-----0---0---|-----0---0---|---2-------2-|---2-------2-|
 D|---2-------2-|---2-------2-|-0-----------|-2-----------|
 A|-2-----------|-3-----------|-------------|-------------|
 E|-------------|-------------|-------------|-------------|
 {eot}
 
 SOLO WITH PICKING ABOVE
 SLIDE NO SLIDE
 
 {sot}
 e|---s--------s----s------s---s----s-----s----s-|---h----------s------s---|---h----------s------s---|
 B|-10\12----10\12--\----10\12-\--12\15-15\17--\-|-10-12--10--12\-7--10\-5-|-10-12--10--12\-7--10\-5-|
 G|----------------------------------------------|-------------------------|-------------------------|
 D|----------------------------------------------|-------------------------|-------------------------|
 A|----------------------------------------------|-------------------------|-------------------------|
 E|----------------------------------------------|-------------------------|-------------------------|
 e|-----------|----------|---------------|---h----------s------s---|
 B|-5-7-8-7-5-|5-7-8-7-5-|-5-7-8-7-5~~~~-|-10-12--10--12\-7--10\-5-|
 G|-----------|----------|---------------|-------------------------|
 D|-----------|----------|---------------|-------------------------|
 A|-----------|----------|---------------|-------------------------|
 E|-----------|----------|---------------|-------------------------|
 e|-----------|----------|-----------|----------|----------------------------------------------------------|
 B|-5-7-8-7-5-|5-7-8-7-5-|-5-7-8-7-5-|5-7-8-7-5-|-5-5-5-5-5-5--7-7-7-7-7-7--8-8-8-8-8-8--10-10-10-10-10-10-|
 G|-----------|----------|-----------|----------|----------------------------------------------------------|
 D|-----------|----------|-----------|----------|----------------------------------------------------------|
 A|-----------|----------|-----------|----------|----------------------------------------------------------|
 E|-----------|----------|-----------|----------|----------------------------------------------------------|
 {eot}
 
 [s] 
 {sot}
 e|-----------------------------------------------------------------s---\15-12----12-------------------------|
 B|-12-12-12-12-12-12--15-15-15-15-15-15--17-17-17-17-17-17-17-17-17-\---------12----12---h------------------|
 G|-------------------------------------------------------------------------------------12-14-12----12-------|
 D|----------------------------------------------------------------------------------------------14----14-12-|
 A|----------------------------------------------------------------------------------------------------------|
 E|----------------------------------------------------------------------------------------------------------|
 e|---------------------------------------|---h----------s------s---|
 B|-------------------------------------s-|-10-12--10--12\-7--10\-5-|
 G|---h---------------12-14~~~~-14~~~~--\-|-------------------------|
 D|-12-14-12----12-14---------------------|-------------------------|
 A|----------14---------------------------|-------------------------|
 E|---------------------------------------|-------------------------|
 ------------------------------
 {eot}
 VERSE 3 - INTRO PICKING
 ********
 [Em]All the endless shapes that this [D]illusion carries on
 [Bm]Motionless I watch the sunlight [A]fade into the dawn
 We had [Em]everything except the future [D]visions in the dark
 [Bm]Ghosts with hollow hearts this heri[A]tage is what we own
 
 
 [Em] [D] [Bm] [A] 
 {sot}
 e|-0-------0-----0-----0-----|-2-----2-----2-------2-----|-2--------------------2----|-0-----0-----0-----0-----|
 B|---0-------0-----0-----0---|---3-----3-----3-------3---|---3-----2------3-------2--|---0-----0-----0-----0---|
 G|-----0-------0-----0-----0-|-----2-----2-----2-------2-|-----4-----4------4-------4|-----6-----6-----6-----6-|
 D|-------2-------------------|-------------------0-------|-------4-----4------4------|-------------------------|
 A|---------------------------|---------------------------|---------------------------|-------------------------|
 E|---------------------------|---------------------------|---------------------------|-----------------------X2|
 {eot}
 
 http://www.progarchives.com/artist.asp?id=208
 
 ENJOY...........