Song Information for Sweetheart

Song Title:Sweetheart
Artist:Lightspeed Champion
Hits:1
{t:Sweetheart}
 {st:Lightspeed Champion}
 
 (Intro/Verse)
 
 [Am] [E] [C] [G] 
 {sot}
 ------------------ -----------------|
 ------------------ -----------------|
 ------------------ (4x) -----------------| (4x)
 ------------------ -----------------|
 -0-00------------- -3-33------------|
 -------0--00------ -------3-33------|
 {eot}
 
 [F] [E] [Am] [E] 
 {sot}
 -1---1-1--1-1-----0---0-0-------0----- ----------------|
 -1---1-1--1-1-----0---0-0---------0--- ----------------|
 -2---2-2--2-2-----1---1-1---0h1-----1- ----------------| (4x)
 -3---3-3--3-3-----2---2-2------------- ----------------|
 -3---3-3--3-3-----2---2-2------------- -0-00-----------|
 -1---1-1--1-1-----0---0-0------------- -------0--00----|
 {eot}
 
 (Pre-Chorus)
 "Sweetheart"
 [Am] [C] [F] [C] [C/B] [Am] [Dm] [G] 
 {sot}
 -0-----0---1------0-----0------0-------1-----3---|
 -1-----1---1------1-----1------1-------3-----3---|
 -2-----0---2------0-----0------2-------2-----0---|
 -2-----2---3------2-----x------2-------0-----0---|
 -0-----3---3------3-----2------0-------------x---|
 -----------1---------------------------------3---|
 {eot}
 
 [Am] [C] [F] [C] [C/B] [Am] [G] 
 {sot}
 -0-----0---1-----0-----0------0----3----|
 -1-----1---1-----1-----1------1----3----|
 -2-----0---2-----0-----0------2----0----|
 -2-----2---3-----2-----x------2----0----|
 -0-----3---3-----3-----2------0----x----|
 -----------1-----------------------3----|
 {eot}
 
 (Chorus-strum)
 
 [F] [C] [E] [Am] [F] [C] [E] [E] 
 {sot}
 -1-----0-----0-----0---- ----1-----0-----0-----o-----
 -1-----1-----0-----1---- ----1-----1-----0-----o-----
 -2-----0-----1-----2---- ----2-----0-----1-----1-----
 -2-----2-----2-----2---- ----3-----2-----2-----2-----
 -------3-----2-----0---- ----------3-----2-----2-----
 -------------0---------- ----------------0-----0-----
 {eot}
 
 (Bridge/Lead)
 [Am] 
 {sot}
 ----------------------------------------------------------|
 -10---8----------------------10---8-----------------------|
 --------10-9----7---9-7--------------10-9--9--7-----------|
 ------------------------7-----------------------9--10--7--|
 ----------------------------------------------------------|
 ----------------------------------------------------------|
 {eot}
 
 -[Am]0----|
 -1----|
 -2----| (repeat numerous times staccatto
 -2----| back into the chorus)
 -0----|
 
 {sot}
 ------|
 {eot}