Song Information for Smooth Day (At the Library)

Song Title:Smooth Day (At the Library)
Artist:
Hits:1
{t:Smooth Day (At the Library)}
 {st:Lightspeed Champion}
 
 you know, that song with the awesome solo.
 
 [D] [A] [D] [A] [D] [A] [D] [A] 
 {sot}
 e|--2--2-----2-2---------------------2-2-----2-2-------------------|
 B|--3--3-2-2-3-3------------------2--3-3-2-2-3-3-----------------2-|
 G|-------2-2-----------2-2h4-2-2h4-------2-2----------2-2h4-2-2h4--|
 D|-0--0-----0-0---2-2h4-------------0-0-----0-0--2-2h4-------------|
 A|------0-0-----0-----------------------0-0-----0------------------|
 E|-----------------------------------------------------------------|
 {eot}
 
 [D]Two weeks longer, [A]We're growing older, [D]likeness meets some[A]times.
 [D]waiting surely, [A]all night and early, [D]morning light sun [A]shines.
 
 [F#m]Please take me [C#m]home again my [D]love[A]r
 
 [D]Longing always,[A] with my books in place,[D] never stretching [A]time
 [D]reading surley,[A] all night and early,[D] morning light sun [A]shines
 
 [F#m]Please take me [C#m]home again my [D]love[A]r
 
 solo:
 
 
 {sot}
 e|--------------------------------------7--7---9p7--7-----------------|
 B|--------------------2-2b3b2-5-5-7-9-10-10-10----10-10p9h10p9p7h9p7--|
 G|--------2-2h4-2-2h4-----------------------------------------------9-|
 D|--2-2h4-------------------------------------------------------------|
 A|--------------------------------------------------------------------|
 E|--------------------------------------------------------------------|
 e|-------------12~--5---------------------------|
 B|-7--------------------------------------------|
 G|--9--10h12h13---------------------------------|
 D|----------------------------------------------|
 A|----------------------------------------------|
 E|----------------------------------------------|
 {eot}
 
 F#m C#m D A F#m c#m D A
 You said you dont want to leave me, what else can i do
 [F#m]you [C#m]said you dont[D] want to [A]see me, [Bm]i'll still per[E]sue