Song Information for Romart

Song Title:Romart
Artist:
Hits:1
{t:Romart}
 {st:Lightspeed Champion}
 
 Intro: 2x
 
 {sot}
 e|-15---14-12---------12------------------------------------------------
 B|------------15-----------15-13-12---10--12--10--------13--12--10------
 G|------------------------------------------------12-----------------11-
 D|----------------------------------------------------------------------
 A|----------------------------------------------------------------------
 E|----------------------------------------------------------------------
 {eot}
 
 Verse 1:
 
 [Em]Dalston [Bm]Lane seems [C]gray[G]
 I've [F]spent all my [Em]coins
 I'm [Am]down to my [D]loins
 
 [Em]So I've [Bm]run a[C]way[G]
 To a [F]happy en[Em]ding
 And a [Am]girl who won't [D]sin
 
 
 In the Chorus the alteration between Em and C goes like this.
 
 [Em] [C] 
 {sot}
 e|----0-0---0-0---0-
 B|----0-0---0-0---1-
 G|----0-0---0-0---0-
 D|--2-----0-------2-
 A|--------------3---
 E|------------------
 {eot}
 [d] [u] [d] [u] [d] 
 
 Chorus:
 
 [Bm] Jot me down in your no[Em]te book
 [C]Keep the lights low if you're s[G]ad
 [Bm]Teenage love in a killer [Em]pad
 Keep [Am]crunching your toe [D]back
 
 Verse 2:
 
 [Em]N - Y - [Bm]A - F - [C]O[G]
 [F]Except all [Em]notes
 [Am](Incompr[D]ehensible)
 
 I [Em]never [Bm]was a [C]fan[G]
 Of [F]loser can[Em]dy
 The [Am]sh*t I don't [D]need
 
 Chorus:
 
 [Bm] Jot me down in your no[Em]te book
 [C]Keep the lights low if you're s[G]ad
 [Bm]Teenage love in a killer [Em]pad
 Keep [Am]crunching your toe [D]back
 
 Solo
 
 Outro: 2x
 
 {sot}
 e|-15---14-12--------12------------------------------------------------
 B|------------15----------15-13-12---10--12--10--------13--12--10------
 G|-----------------------------------------------12-----------------11-
 D|---------------------------------------------------------------------
 A|---------------------------------------------------------------------
 E|--------------------------------------------------------------------- 
 {eot}