Song Information for Faculty of Fears

Song Title:Faculty of Fears
Artist:
Hits:1
{t:Faculty of Fears}
 {st:Lightspeed Champion}
 
 Bass line easily transposed to guitar
 
 {sot}
 G|------------------------------------------------------------------------|
 D|-------------------------------------------------2-2-----------------0--|
 A|------5----------5---------5----3-3--3-0-0--0-------0-0--0-0-2-2--2-2---|
 E|-3-3---3-3--3-3---3-3--3-3--3-3--------------3--3-----------------------|
 G|------------------------------------------------------------------------|
 D|-----------------------------2-2--------------0-0-0---------0-----------|
 A|------5-----3-3--3-0-0--0-------0-0--0-0--2-2----2-2-1-0-0--------------|
 E|---3-3--3-3--------------3--3-------------------------------------------|
 {eot}
 
 She was born on a monday night
 in my head and for my eyes
 in a theoram of pythagoras
 
 Fall asleep on the train
 Mr J he rots your brain
 your not fun lest you pick up the pace.
 
 
 {sot}
 e|-7--3--3--------------------------|
 B|-8--3--5--------------------------|
 G|-9--4--5--------------------------|
 D|-9--5--5--------------------------|
 A|-7--5--3--------------------------|
 E|----3-----------------------------|
 {eot}
 [Em] [G] [C] 
 another [Em]cold night down on the [G]Mare
 Kissing [Em]boys and pretending to [G]care
 its the [C]Faculty of [G]fear
 its the [C]faculty of [G]fears
 And if your [Em]heart is screaming take me [G]home
 Hail a [Em]cab and turn off your [G]phone
 thats the [C]Faculty of [G]fear
 just the [C]faculty of [G]fears
 
 Drop your scarf in the mud.
 Slacker Jacks and coffee mugs.
 is your dorm room a romantic place,
 well tell me is it?
 
 all the hits and your favourate songs.
 Through your ears and down your sarong.
 if he's evil then why does he kiss?
 
 anoth[Em]er cold night down on t[G]he Mare
 Kissing [Em]boys and pretending to [G]care
 its the [C]Faculty of [G]fear
 its the [C]faculty of [G]fears
 And if your [Em]heart is screaming take me [G]home
 Hail a [Em]cab and turn off your [G]phone
 thats the [C]Faculty of [G]fear
 just the [C]faculty of [G]fears
 
 [C]Dont you feel [G]better, [C]staying in on your [G]own?
 [C]Sometimes its [A]better in your [C]slutty crone[G]
 [C]listen to [G]Lucia a [C]favoured [G]friend
 [C]Pamela [A]sing for me.[C][C][C][C][C][C][C]
 
 anot[Em]her cold night down on [G]the Mare
 Kissing [Em]boys and pretending to [G]care
 its the [C]Faculty of [G]fear
 its the [C]faculty of [G]fears
 And if your [Em]heart is screaming take me [G]home
 Hail a [Em]cab and turn off your [G]phone
 thats the [C]Faculty of [G]fear
 just the [C]faculty of [G]fears
 
 
 {sot}
 e|-------------------------12-----12-10--------10-15-12-10----12h15-12-|
 B|---------------------------10-12-----12-10-12------------------------|
 G|----------9/11\9-7/9\7-----------------------------------------------|
 D|------7-9--------------9---------------------------------------------|
 A|-7-7/9-9-------------------------------------------------------------|
 E|---------------------------------------------------------------------|
 e|-10-12-10------------------------------------|
 B|---------12----------------------------------|
 G|---------------------------------------------|
 D|---------------12-10-9-7-5-2-0---------------|
 A|---------------------------------------------|
 E|---------------------------------------------|
 e|--------10-12-15-12-10----------------------------------------------|
 B|----------------------12p10-10-12p10-10-10-12-10--------------------|
 G|------------------------------------------------12-11-9-9-7-9-7-----|
 D|-2/4/9----------------------------------------------------------9---|
 A|--------------------------------------------------------------------|
 E|--------------------------------------------------------------------|
 e|-15-12-10-12-10-15p12-15p12-10----------------------------|
 B|------------------------------12p10h12-13-12-10-12-10-----|
 G|-----------------------------------------------------12---|
 D|----------------------------------------------------------|
 A|----------------------------------------------------------|
 E|----------------------------------------------------------|
 e|------------------------------------------------------------------|
 B|------------------------------------------------------------------|
 G|-12h14p12---------12-9---------------0-2p0---2p0---2p0---2p0------|
 D|---------14-12-14-----12-9--7~-7~-5-------2p0---2p0---2p0---2~----|
 A|------------------------------------------------------------------|
 E|------------------------------------------------------------------|
 {eot}
 
 parts of that solo you can barley like the climb down and up on the D string, i did my
 to tab it right,