Song Information for Marlene

Song Title:Marlene
Artist:Lightspeed Champion
Hits:1
{t:Marlene}
 {st:Lightspeed Champion}
 
 Marlene - Lightspeed Champion
 Tabbed by Sam Brown
 Riffs originally tabbed by mansell863
 
 [G]Stick a spoon into your [Em]heart
 [C]And eat away all your Deutsch [Em]marks
 [G]Your money don't mean a damn [Em]thing
 [C]I'm wearing everything I [Em]own
 
 LEAD RIFF (Play G, Em, C, Em):
 
 {sot}
 e|-----------------7---------------------------/12----------12--------|
 B|-------7b8-7-5----8---------------8---10--------12------12----------|
 G|-0-4-7---------7---9-11-9-4-7-4----9----9---------12--12------------|
 D|--------------------------------10--10---10---------14--------------|
 A|--------------------------------------------------------------------|
 E|--------------------------------------------------------------------|
 {eot}
 
 Stop being [G]cool oh oh[Em], oh oh[C], oh o[Em]h x2
 
 [G]Night time running [Em]in and out of cars
 I'm tr[Am]eading on my nerves
 I wont make up a f[D]uss
 [G]Cheer boy is not r[Em]eady for your fun
 So g[Am]ive up all your love
 Give up all your l[D]ove
 
 [G]The air is sticking to me[Em]
 [C]You're in my room and still wont [Em]leave
 [G]To me it is something m[Em]ore
 [C]In love a 22 [Em]4
 
 LEAD RIFF (Play G, Em, C, Em):
 
 {sot}
 e|-----------------7---------------------------/12----------12--------|
 B|-------7b8-7-5----8---------------8---10--------12------12----------|
 G|-0-4-7---------7---9-11-9-4-7-4----9----9---------12--12------------|
 D|--------------------------------10--10---10---------14--------------|
 A|--------------------------------------------------------------------|
 E|--------------------------------------------------------------------|
 {eot}
 
 Stop being c[G]ool oh oh[Em], oh oh[C], oh oh[Em] x2
 
 [G]Night time running [Em]in and out of cars
 I'm tr[Am]eading on my nerves
 I wont make up a [D]fuss
 [G]Cheer boy is not r[Em]eady for your fun
 So g[Am]ive up all your love
 Give up all your [D]love
 
 [Em]I'm ready to give up on you [Am]now
 I'm waiting till the sun has gone d[D]own
 I'm waiting for a strand of your g[G]old locks
 To [Bm]sew my stomach s[Em]hut
 And everybody knows you want a[Am] baby
 And god knows everybody wants one [C]too
 Latin promises always keep b[D]reaking
 Now I don't know what to do
 
 --rhythm guitar plays Em whilst lead plays solo--
 
 
 {sot}
 e|-12-12-12-12-12p10---------12p10--------------------------------------------|
 B|-------------------12p10-12------12p10-12\----------------------------------|
 G|-------------------------------------------2b3-2-2p0--------2p0-------2b3b2-|
 D|----------------------------------------------------2p0-2p0----2p0----------|
 A|------------------------------------------------------------------2p0-------|
 E|---------------------------------------------------------------------0------|
 e|-5---------12-12-12-12/15-15p12h15p12h15p12-17b18-17-15-|
 B|-5------------------------------------------------------|
 G|-5------------------------------------------------------|
 D|-5------------------------------------------------------|
 A|--------------------------------------------------------|
 E|--------------------------------------------------------|
 {eot}
 
 [G]And everybody knows you want a b[Em]aby
 [C]Well god knows everybody wants one [Em]too
 [G]Everybody knows you want a ba[Em]by
 [C]Well god knows everybody wants one t[Em]oo
 
 LEAD RIFF (Play G, Em, C, Em):
 
 
 {sot}
 e|-----------------7---------------------------/12----------12--------|
 B|-------7b8-7-5----8---------------8---10--------12------12----------|
 G|-0-4-7---------7---9-11-9-4-7-4----9----9---------12--12------------|
 D|--------------------------------10--10---10---------14--------------|
 A|--------------------------------------------------------------------|
 E|--------------------------------------------------------------------|
 {eot}