Song Information for Everyone I Know Is Listening to Crunk

Song Title:Everyone I Know Is Listening to Crunk
Artist:
Hits:1
{t:Everyone I Know Is Listening to Crunk}
 {st:Lightspeed Champion}
 
 
 {sot}
 -----------------------------------------------------------------------------
 {eot}
 Everyone I Know Is Listening To Crunk - Lightspeed Champion
 
 {sot}
 -------------------------------------------------------------------------------
 {eot}
 Tabbed by: slurms
 Email: slurms.mckenzie@hotmail.com
 
 Tuning:EADGBE
 
 Intro
 
 {sot}
 e|---0~--------0~--|---0~---0h2-0---0-----|---0~--------0~--|--2~----4~------|
 B|---0~--------2~--|---0~---------2---2p0-|---0~--------2~--|--2~----5~------|
 G|---1~--------2~--|---1~-----------------|---1~--------2~--|--4~----6~------|
 D|---2~--------2~--|---2~-----------------|---2~--------2~--|--4~----6~-etc--|
 A|---2~------0-----|---2~-----------------|---2~------0-----|--2~----4~------|
 E|-0---------------|-0--------------------|-0---------------|----------------|
 {eot}
 
 
 Chords Used
 
 {sot}
 e|--0---0---2----7---3---4----4---|
 B|--0---2---2----7---4---5----4---|
 G|--1---2---4----8---5---6----5---|
 D|--2---2---4----9---5---6----6---|
 A|--2---0---2-or-9---3---4----6---|
 E|--0------------7------------4---|
 {eot}
 [E] [A] [B] [B] [Cm] [C#m] [Ab] 
 
 Verse 1
 [(E)]Kiss Me, & [(A)]Comfort Me, [(E)]My Sweet
 [(E)]Take Me Out[(A)] To Dinner, [(B)]Like You Did, [(Cm)]Last Week
 [(C#m)]I Wake Up Be[(Ab)]side You, W[(C#m)]hen I`m Out, I[(Ab)] Wont Hide From You
 [(A)]Like I Have Done,[(B)] Before
 
 
 
 Chorus
 [(E)]Kiss Me, & [(A)]Comfort Me, [(E)]My Sweet
 [(E)]Take Me To [(A)]The Genesis,[(B)] To See [(Cm)]Saw Three
 [(C#m)]But I Know Now, It[(Ab)]s Over, [(C#m)]Try To Get O[(Ab)]ver
 [(A)]The Mountain, From Under Our F[(B)]eet
 
 
 
 Bridge
 [(Ab)]Mixed Feelings I Get In My Head
 [(C#m)]Hot Woman, Not In My Bed
 [(Ab)]Oh Please Forget What I Said
 [(C#m)]Sometimes, I[(B)]n The Cold Night
 [(A)]My Phone Rings, [(E)]But It`s Not You
 
 
 Chorus
 [(E)]Kiss Me, & [(A)]Comfort Me, [(E)]My Sweet
 [(E)]Come Over I[(A)] Just Got, The [(B)(Cm)]New OC
 [(C#m)]If They Can Sort Their P[(Ab)]roblems Out
 [(C#m)]Why Can`t I Get Out The [(Ab)]House?
 [(A)]For Mango, Frescato Or [(B)]Tea
 
 
 
 Bridge 2
 [(Ab)]My Drawings Are Starting To Suck
 [(C#m)]My Best Friends Are All Listening To Crunk
 [(Ab)]I Feel Like The World`s Gone Crazy
 [(C#m)]Sometimes, I[(B)]n The Cold Night
 [(A)]My Phone Rings, [(E)]But It`s Not You
 [(C#m)]And Even, [(B)]When The Buzzer, [(A)]To My Page Rings
 [(E)]Still Not You
 [(C#m)]A Stranger On The [(B)]Night Bus
 [(A)]With A Checked Coat, [(E)]Is Not You
 [(C#m)]And In One Hand, [(B)]Hold Me So Close
 [(A)]But Deep Down, [(E)]Its Not You
 
 
 | / slide up
 | \ slide down
 | h hammer-on
 | p pull-off
 | ~ let ring
 | + harmonic
 | x Mute note
 ===============================================================================