Song Information for Dry Lips

Song Title:Dry Lips
Artist:
Hits:1
{t:Dry Lips}
 {st:Lightspeed Champion}
 
 one of my faves on the album
 
 
 {sot}
 e|-------------------------------------------------------------|
 B|-------------------------------------------------------------|
 G|----------------------------------------------------0-0-0-0--|
 D|--2-2-2-2-2-2-3-3-5-5-5-5-5-5-7-7---2-2-2-2-2-2-0-0----------|
 A|-3-3-3-3-3-3-5-5-7-7-7-7-7-7-8-8---3-3-3-3-3-3-2-2-3-3-3-3---|
 E|-------------------------------------------------------------|
 {eot}
 
 guitar two:
 listen for timing
 
 
 {sot}
 e|--8-7-----------------17---------17----------17-------------------------
 B|------10-8------13----------13----------13----------------5-5-5-5/6-6-5-
 G|------------14-----14----14---14-----14---14----5-2---2-5-5-5-5-5/7-7-5-
 D|----------------------------------------------------5-------------------
 A|------------------------------------------------------------------------
 E|------------------------------------------------------------------------
 e|--------8------8-----8-----------12----12-----8-7-------
 B|-/5-5------5------5------6-6--8-----8-----8-------10-8--
 G|-/5---5--5---5--5---5---7-7--9-9---9-9---9-9------------
 D|--------------------------------------------------------
 A|--------------------------------------------------------
 E|--------------------------------------------------------
 e|--------------17---------17----------17-------------------------
 B|--------13----------13----------13----------------5-5-5-5/6-6-5-
 G|----14-----14----14---14-----14---14----5-2---2-5-5-5-5-5/7-7-5-
 D|----------------------------------------------------------------
 A|----------------------------------------------------------------
 E|----------------------------------------------------------------
 {eot}
 
 chorus:
 
 
 {sot}
 e|------------------------------------------------------------------|
 B|------------------------------------------------------------------|
 G|------------------------------------------------------------------|
 D|----0-0-0-2-0-------------0---0---0---0---0--2-0-2-0-2-0-2-0------|
 A|---0---0------3-0-2-2--2-2-2-2-2-2-2-2-2-2--3---3---3---3----2-0--|
 E|-1---1------------------------------------------------------3---3-|
 e|-----------------------------------------------------|
 B|-----------------------------------------------------|
 G|-----------------------------------------------------|
 D|---------0------0------------------------------------|
 A|-----0------0----------------------------------------|
 E|-1-1---1---1--1--------------------------------------|
 {eot}
 
 [C]Tell her..
 [Dm]I give up...
 [Em]He's won..[F] and i have lost [Am]all.
 [G] [C] [G]