Song Information for Midnight Surprise

Song Title:Midnight Surprise
Artist:
Hits:1
{t:Midnight Surprise}
 {st:Lightspeed Champion}
 
 i figured this out from the acoustic version of liveroom.tv
 
 thought id be nice and update it with some lyrics
 
 intro consists of
 
 
 {sot}
 e|-x--0--x--|
 B|-5--0--4--|
 G|-6--1--5--|
 D|-6--2--4--|
 A|-4--2--3--|
 E|-x--0--x--|
 {eot}
 c#m E cmb5 <- (thanks to waap)
 
 c#m E c#m E
 shoot me into sleep
 c#m E c#m E
 your beauty is so close to me
 c#m
 an even better still
 warm nights an the c[E]hill
 c#m
 creepin down my bones
 cmb5
 reminds me im alone
 
 my sweet midnight [C#m]surprise
 staple down my [E]eyes
 stars i cannot [C#m]see
 cmb5
 take me galaxy
 
 deeper in the[C#m] zone
 2 player combo [E]mode
 creepin down my[C#m] bones
 cmb5
 reminds me im alone
 
 then he goes
 
 ejacquantumbreeze
 
 
 {sot}
 e|--------4---------4-------------4----------4----------4---|
 B|--------5-----5----5--------5----5------5---5-------5--5--|
 G|--------6-6-6---6---6-6-6-6---6---6-5-5---5--5-5-5-5-5--5-|
 D|--------6-------------------------------------------------|
 A|--------4-------------------------------------------------|
 E|-0-2-4-5--------------------------------------------------|
 e|--------11--11--11--9-------7--7--7---X2--------------7----|
 B|-----9----9---9---9-------5--5--5--5--and on the----7--7---| X2
 G|-9-9--9----9---9---9--5-5--5--5--5--5-end of the-9-9-9--9--|
 D|--------------------------------------2nd one ad-----------|
 A|-----------------------------------------------------------|
 E|-----------------------------------------------------------|
 {eot}
 
 2nd time he also sings
 
 ejacquantumbreeze
 even in the sea
 replace all meaning
 i spy
 
 repeating E|-o-2-4-5-c#m
 for each line
 
 after thats played 2ce its goes to
 
 
 {sot}
 e|-0--4--x---0-|
 B|-0--4--5---1-|
 G|-1--4--6---2-|
 D|-2--6--6---2-|
 A|-2--6--4---0-|
 E|-0--4--x---x-|
 {eot}
 [E] [G#m] [C#m] [Am] 
 
 [E]f**k i think she just [G#m]saw me stop h[C#m]iding in the [Am]sea
 E G#m c#m Am
 sh*t my midnight surprise has found out all my lies
 
 after this is played a few times thers like a little bridge consisting of
 
 
 {sot}
 e|-0---x--0--x--|
 B|-0---5--2--4--|
 G|-1---6--2--4--|
 D|-2---6--2--4--|
 A|-2---4--0--2--|
 E|-0---x--x--x--|
 {eot}
 [E] [C#m] [A] [B] 
 
 [E]crunch [C#m]time [A]night [B]time palm luxur[E]ies w[B]ich [C#m]i mist[A]ake for lif[B]e
 E c#m A B E B C#m A B
 dont talk to me stay away unless you want me near you
 
 [C#m]wake up princess
 [Am]wake up princess
 [C#m]wake up princess
 [Am]wake up princess
 [E]wake [C#m]up p[Am]rinc[B]ess
 [E]wake [C#m]up p[Am]rinc[B]ess
 [C#m]wake up princess
 [Am]wake up princess
 
 
 {sot}
 e|-----------------|
 B|-1-1-1-1-1-0-----|
 G|-------------2-1-|
 D|-----------------|
 A|-----------------|
 E|-----------------|
 e|-x--x---x-----5--4---------------|
 B|-9--12--5--9--5--4---------------|
 G|-9--13--6--8--6--4---------------|
 D|-9--13--6--x--7--6-------------1-|
 A|-7--11--4--6--7--6-------0-2-4---|
 E|-x--x---x-----5--4-0-2-4---------|
 {eot}
 E G#m C#m ? A G#m
 
 E G#m c#m ? A G#m fill
 i guess deep down my heart is not as pure as it was
 
 thats repeated a few times then befor the solo he does this
 
 
 {sot}
 e|-4-------------------|
 B|-5-------------------|
 G|-6-------------------|
 D|-6-6\4-2-2/4-2-2/4/6-|
 A|-4-------------------|
 E|-x-------------------|
 {eot}
 
 then:
 [C#m]As i [E]lay in bed wrapped [C#m]in cold s[E]weat just take me now
 
 i dont know the 1st half of the solo on electric but heres the second half acoustic one
 
 
 {sot}
 e|-------------------------------------------|
 B|-------------------------------------------|
 G|----------9-8-8----------------------------|
 D|-9-6------------9-11-9-6-------------------|
 A|-----9/7-----------------------------------|
 E|-------------------------------------------| reapeated till the end
 {eot}
 
 the rest of the song is just the intro again
 
 PLEASE correct me
 
 hope this helped xx