Song Information for Tell Me What It’s Worth

Song Title:Tell Me What It’s Worth
Artist:
Hits:1
{t:Tell Me What It??s Worth}
 {st:Lightspeed Champion}
 
 
 {sot}
 -------------------------------------------------------------------------------
 {eot}
 Tell Me What It's Worth - Lightspeed Champion
 
 
 {sot}
 -------------------------------------------------------------------------------
 {eot}
 Tabbed by: Gareth Jones
 Email: garjones01@hotmail.co.uk
 
 Tuning: Regular
 
 Listen to track for strumming patterns.
 
 Intro:
 
 {sot}
 e|-----------------5---5-5--------|
 B|--5---5-5--------5---5-5--------|
 G|--5---5-5--------5---5-5--------|
 D|--5---5-5--------7---7-7--------|
 A|--3---3-3-(4x)---7---7-7--(4x)--|
 E|-----------------5---5-5--------|
 {eot}
 
 Repeat for verse:
 'Crack open the good times, on a street corner busting rhymes,
 But you fell between the lines'
 
 There's a fill during the verse which is:
 
 
 {sot}
 e|--7----5-----------------------------------------------------------------------------|
 B|------------8----6---------------8--------------------------10-----------------------|
 G|----------------------------9---------9----------------9----------9------------------|
 D|----------------------10-------------------------10----------------------------------|
 A|------------------------------------------(4x)-----------------------(4x)------------|
 E|-------------------------------------------------------------------------------------|
 e|-------------------------------------------------------------------------------------|
 B|-------------8------------------------10---------------------------------------------|
 G|--------9---------9--------------9----------9----------------------------------------|
 D|--10-----------------------10--------------------------------------------------------|
 A|---------------------(4x)----------------------(4x)----------------------------------|
 E|-------------------------------------------------------------------------------------|
 {eot}
 
 Chorus:
 
 [Fmaj7]Tell me what it's wort[C]h
 
 
 {sot}
 e|--0--------------0-----------------------------------------------------------|
 B|--1--------------1--1-h-3-1--------------------------------------------------|
 G|--2--------------0----------0------------------------------------------------|
 D|--3--------------2------------3----------------------------------------------|
 A|-----------------3-----------------------------------------------------------|
 E|-----------------------------------------------------------------------------|
 {eot}
 
 Repeat Verse and Chorus.
 
 Bridge: (not sure about the lyrics)
 
 [Am]Keep your blades and keep [G]swinging, don't stop 'til red runs o[F]ut,
 'Til no joy pours out of yo[C]ur mouth
 
 Then back to the intro with fill
 
 Then chorus again. End on Fmaj7.
 
 
 | / slide up
 | \ slide down
 | h hammer-on
 | p pull-off
 | ~ vibrato
 | + harmonic
 | x Mute note
 ===============================================================================