Song Information for Galaxy of the Lost

Song Title:Galaxy of the Lost
Artist:Lightspeed Champion
Hits:1
{t:Galaxy of the Lost}
 {st:Lightspeed Champion}
 
 http://www.myspace.com/lightspeedchampion
 
 im pretty sure this is all of it
 
 
 {sot}
 e|-0--0---1--3------0--1-------------------------|
 B|-1--1---1--0--2---0--3-------------------------|
 G|-0--2---2--0--2---1--2-------------------------|
 D|-2--2---3--0--2---2--0-------------------------|
 A|-3--0---3--2--4---2----------------------------|
 E|--------1--3-----------------------------------|
 {eot}
 [C] [Am] [F] [G] [A/C#] [E] [Dm] 
 intro:
 
 [C]i feel [Am]better n[Dm]ow I've s[G]een you
 
 But [C]deep in[Am]side my[Dm] bones feel like [G]timber
 and [C]i [Am]am s[Dm]haking from the [G]tension
 and [C]i [Am]will [Dm]shudder at the [G]mention
 
 
 {sot}
 e|--------------------------0-1-3-5b-----|
 b|--------------------0-1-3-------5b-----|
 G|---------------0-2---------------------|
 D|---------0-2-3-------------------------|
 A|---0-2-3-------------------------------|
 E|-3-------------------------------------|
 {eot}
 
 (Thanks to punkextremest for originally tabbing the riff) \/
 
 {sot}
 e|------------------------------------------------------------------|
 b|----6-6---------5--5---------6-6------------5---5-----------------|
 G|--------5h7--4-------5p4-2-------5h7--4-4-4---4-------------------|
 D|----0------------------------0------------------------------------|
 A|----------------3-----------------------3-3-----------------------|
 E|-------------3-----------1------------3---------------------------|
 e|-------------------------------------------------------------------|
 B|---6--6p5--------5-5-8p5-------6-6------------1-1-1----------------|
 G|----------7p5-4---------7p5-6-----7h5-4\2--------------------------|
 D|---0--0------------------------0-----------------------------------|
 A|-----------------3---------------------------3-3--3----------------|
 E|----------------------------5--------------------------------------|
 {eot}
 
 verse:
 [F]hate to [C]think what would [Am]happen if i [A/C#]started to drink like you
 
 [Dm]maybe [E]i will [Am]loosen [A/C#]up
 
 [Dm]pour me another [E]gin
 
 chorus:
 [Am]guu[E]uz[F]zl[C]e [Dm]down my [E]neck will burn
 
 [Am]as we [E]kiss and im [F]sick [C]in your [Dm]mouth
 
 [E]i know you want more
 
 [Am]lick my [E]open w[F]ound and [C]add some [Dm]ice
 
 and [E]choke on my sick[Am]vic[E]e
 
 [F]oh[C] g[Dm]irl the l[E]ights are on.
 
 when played live he plays this
 
 [Dm] [G] [Am] [F] 
 [Dm] [G] [C] 
 [Dm] [G] [Am] [A/C#] 
 [Dm] [G] [C] 
 but in the video repeats the intro riff
 
 verse 2:
 [F]trapped in [C]bed as the p[Am]oison slowly [A/C#]creeps in an stops me dead
 
 [Dm]should have [E]known better [Am]than to [A/C#]cave
 
 [Dm]into such fantas[E]ies
 
 chorus:
 [Am]guu[E]uz[F]zl[C]e [Dm]down my [E]neck will burn
 
 [Am]as we [E]kiss and im [F]sick [C]in your [Dm]mouth
 
 [E]i know you want more
 
 [Am]lick my [E]open w[F]ound and [C]add some [Dm]ice
 
 and [E]choke on my sick[Am]vic[E]e
 
 [F]oh[C] g[Dm]irl the l[E]ights are on.
 
 [Dm] [G] [Am] [F] 
 [Dm] [G] [C] 
 [Dm] [G] [Am] [A/C#] 
 [Dm] [G] [C] 
 
 bridge:
 this is also the track thats starts the album called number one
 
 
 {sot}
 e|--------------------------------------1-1---1---------------|
 B|---3---0h1---------3---0h1----0-------1-1---1---------------|
 G|-0-0-0-0--0------0-0-0-0---0--0---2---2-2---2-----------0---|
 D|-2---2----2-0h2--2---2-----2--2-2-3-3-3-3-3--------0-2-3----|
 A|-3---3----3-3----3---3-----3--3-3-3-3-2---3---0-2-3---------|
 E|----------------------------------1-1-1---1--3--------------|
 {eot}
 [C] [F]
 
 {sot}
 e|--------------------------------------1-1---1---------------|
 B|---3---0h1---------3---0h1----0-------1-1---1---------------|
 G|-0-0-0-0--0------0-0-0-0---0--0---2---2-2---2---------------|
 D|-2---2----2-0h2--2---2-----2--2-2-3-3-3-3-3-----------------|
 A|-3---3----3-3----3---3-----3--3-3-3-3-2---3-----------------|
 E|----------------------------------1-1-1---1-----------------|
 {eot}
 [C] [F]
 
 {sot}
 e|-------------------------0-1-3--5--------------------------------|
 B|-------------------0-1-3--------5--------------------------------|
 G|---------------0-2-----------------------------------------------|
 D|---------0-2-3---------------------------------------------------|
 A|---0-2-3---------------------------------------------------------|
 E|-3---------------------------------------------------------------|
 {eot}
 
 outro:
 
 [C]i feel [Am]better [Dm]now ive [G]seen you
 
 But [C]deep in[Am]side my b[Dm]ones feel like t[G]imber
 and [C]i [Am]am s[Dm]haking from the [G]tension
 and [C]i [Am]will [Dm]shudder at the [G]mention
 
 
 {sot}
 e|--------------------------0-1-3-5b------|
 b|--------------------0-1-3-------5b------|
 G|---------------0-2----------------------|
 D|---------0-2-3--------------------------|
 A|---0-2-3--------------------------------|
 E|-3--------------------------------------|
 {eot}
 
 thats basically it
 
 if you have any suggestions just comment =)