Song Information for Head Cold

Song Title:Head Cold
Artist:
Hits:1
{t:Head Cold}
 {st:Lights}
 
 CAPO 5
 
 [D] 
 {sot}
 e|-------------------|-------------------||
 B|----------3--------|-----------3-------||
 G|--0h2--------2-----|-----2--------2----||
 D|-------0-----------|--0-----0----------||
 A|-------------------|-------------------||
 E|-------------------|-------------------||
 {eot}
 *Repeat above for intro and most of the verses*
 
 [G] 
 {sot}
 e|-------------------|-------------------||
 B|-----------3-------|-----------3-------||
 G|-----0--------0----|-----0--------0----||
 D|-------------------|-------------------||
 A|-------------------|-------------------||
 E|--3-----3----------|--3-----3----------|| 
 {eot}
 
 [Intro]
 
 [D] 
 
 [Verse]
 
 [D]Walk to the corner
 [D]Stood in the cold wind
 And felt the t[G]ime
 Passing me [D]by
 [D]Under a cover
 [D]All frozen over
 And my oh [G]my
 Knuckles are wh[D]ite
 
 [A]I'm stuck in a ha[Em]rd place
 Out in the [G]rat race
 Like every[Em]body else
 And t[A]his one is a b[Em]ig wall
 I'm in for the l[G]ong haul
 Trying to re[Em]mind myself
 
 [Chorus]
 
 It's just a h[Em]ead col[D]d[G]
 It's just a h[Em]ead col[D]d[G]
 
 [Verse 2]
 
 [D]Need a little push now
 [D]Some kind of a shake down
 So come h[G]ere anyth[D]ing
 
 [A]I'm caught in the l[Em]andslide
 Stuck on the i[G]nside
 Like everyb[Em]ody else
 And t[A]his one is a [Em]big wall
 I'm in for the [G]long haul
 Trying to re[Em]mind myself
 
 [Chorus]
 
 It's just a h[Em]ead col[D]d[G]
 It's just a h[Em]ead col[D]d[G]
 It's just a h[Em]ead col[D]d[G]
 It's just a h[Em]ead col[D]d[G]
 
 [Verse 3]
 
 [D]It's not[G]hing
 It's not l[D]onelin[G]ess
 Nob[D]ody c[Em]ame in on a [D]bed of red ro[G]ses
 K[D]eep mo[G]ving
 Eve[D]ryone [G]is
 Doors [D]always o[Em]pen when ano[D]ther one clo[G]ses
 
 [Chorus]
 
 It's just a h[Em]ead col[D]d[G]
 It's just a h[Em]ead col[D]d[G]
 It's just a h[Em]ead col[D]d[G]
 It's just a h[Em]ead col[D]d[G]
 
 [Outro]
 
 [Em]OooOoo [D]OooOoo [G]Ooo
 [Em]OooOoo [D]OooOoo [G]Ooo
 [Em]OooOoo [D]OooOoo [G]Ooo
 [Em]OooOoo [D]OooOoo [G]Ooo...