Song Information for Unsung

Song Title:Unsung
Artist:Helmet
Hits:276
{t:Unsung}
 {st:Helmet}
 
 UNSUNG
 As recorded by Helmet
 (From the 1992 Album MEANTIME)
 
 Words and Music by Page Hamilton
 
 2 2 [E5]2 x x x 3 3 [F5]3 x x x 5 5 [G5]5 x x x 0 0 [D5]0 x x x
 
 7 7 [A5]7 x x x 8 8 [Bb5]8 x x x x x[Fmaj7] 3 5 5 x
 
 Gtr I (D A D G B E) - 'Gtr I'
 Gtr II (D A D G B E) - 'Gtr II'
 
 Intro
 Q=160
 N.C. N.C.(EN.C.(FN.C.(GN.C.(EN.C.(FN.C.(G)
 3/8 4/4
 Gtr II
 
 {sot}
 PM------------------------------|
 {eot}
 Q. Wx4 E E E E E E E E E E E E E E E E
 
 {sot}
 |------|------------||------------------|-------------------||
 |------|------------||o-----------------|------------------o||
 |------|------------||------------------|-------------------||
 |------|------------||------------------|-------------------||
 |------|------------||o-----------------|------------------o||
 |------|------------||--2-2-2-3-3-3-5-5-|-2-2-2-3-3-3-5-5---||
 {eot}
 
 [E5] [F5] [G5] [E5] [F5] [G5]
 [E] [E] [E] [E] [E] [E] [E] [E] [E] [E] [E] [E] [E] [E] [E] [E] 
 {sot}
 |---------------------|-----------------|
 |---------------------|-----------------|
 |---------------------|-----------------|
 |-----(2)-2-3-3-3-5-5-|-2-2-2-3-3-3-5-5-|
 |-(2)--2--2-3-3-3-5-5-|-2-2-2-3-3-3-5-5-|
 |--2---2--2-3-3-3-5-5-|-2-2-2-3-3-3-5-5-|
 {eot}
 |
 | Gtr I
 | E E E E E E E E E E E E E E E E
 
 {sot}
 |--0---0--0-0-0-0-0-0-|-0-0-0-0-0-0-0-0-|
 |--5---5--5-5-5-5-5-5-|-5-5-5-5-5-5-5-5-|
 |---------------------|-----------------|
 |---------------------|-----------------|
 |---------------------|-----------------|
 |---------------------|-----------------|
 {eot}
 
 [E5] [F5] [G5] [E5] [F5] [G5]
 [E] [E] [E] [E] [E] [E] [E] [E] [E] [E] [E] [E] [E] [E] [E] [E] 
 {sot}
 |---------------------|-------------------|
 |---------------------|-------------------|
 |---------------------|-------------------|
 |-2-2-2-3-3--3---5--5-|--2--2-2-3-3-3-5-5-|
 |-2-2-2-3-3--3---5--5-|--2--2-2-3-3-3-5-5-|
 |-2-2-2-3-3--3---5--5-|--2--2-2-3-3-3-5-5-|
 {eot}
 |
 | E E E E E E Q +W
 
 {sot}
 |-0-0-0-0-0-(0)-(0)---|-(0)---------------|
 |-5-5-5-5-5--5---0----|-(0)---------------|
 |---------------------|-------------------|
 |---------------------|-------------------|
 |---------------------|-------------------|
 |---------------------|-------------------|
 {eot}
 
 [E5]Gtr II[F5][G5][E5][F5][G5]
 [E]| [E]| [E]| [E]| [E]| [E]| [E]| [E]| [E]| [E]| [E]| [E]| [E]| [E]| [E]| [E]|
 [/] [/] [/] [/] [/] [/] [/] [/] [/][/][/][/][/][/][/][/]
 Gtr I
 ~~~~~~~~~~~~~~~~~~~~~~~~~~~~~~~~~~~~~~~~~~~~~~~~~~~~~~~~~
 [E] [E] [E] [E] [E] [E] [E] [E] [E] [E] [E] [E] [E] [E] [E] [E] 
 {sot}
 |--0---------0--0--0--0--0--0--0-|--0--0--0--0--0--0--0--0-|
 |-11pb12.5==11-11-11-11-11-11-11-|-11-11-11-11-11-11-11-11-|
 |--------------------------------|-------------------------|
 |--------------------------------|-------------------------|
 |--------------------------------|-------------------------|
 |--------------------------------|-------------------------|
 {eot}
 
 [E5] E E E [F5] E E E [G5] E E [E5] E E E [F5] E E E [G5] E E [D5]W +W
 | | | | | | | | | | | | | | | | | |
 [/] [/] [/] [/] [/] [/] [/] [/] [/] [/] [/] [/][/][/][/][/][/][/]
 ~~~~~~~~~~~~~~~~~~~~~~~~~~~~~~~~~~~~~~~~~~~~~~~~~~~~
 E E E E E E E E E E E E E E E E W +W
 
 {sot}
 |--0--0--0--0--0--0--0--0-|--0--0--0--0--0--0--0--0--|----------|--------||
 |-11-11-11-11-11-11-11-11-|-11-11-11-11-11-11-11-11r-|----------|--------||
 |-------------------------|--------------------------|----------|--------||
 |-------------------------|--------------------------|-0--------|-(0)----||
 |-------------------------|--------------------------|-0--------|-(0)----||
 |-------------------------|--------------------------|-0--------|-(0)----||
 {eot}
 
 $
 [E5]Gtr I[DE5][D5E5][D5E5][F5][G5]
 E E E Q E E E H E E E E E E E Q E E E E E E E E E E E
 
 {sot}
 ||-----------------|--------------|----------------|-------------------||
 ||o----------------|--------------|----------------|------------------o||
 ||-----------------|--------------|----------------|-------------------||
 ||--2-2-2----2-0-2-|------2-2-2---|-2-0-2----2-0-2-|-2-2-2-3-3-3-5-5---||
 ||o-2-2-2----2-0-2-|------2-2-2---|-2-0-2----2-0-2-|-2-2-2-3-3-3-5-5--o||
 ||--2-2-2----2-0-2-|------2-2-2---|-2-0-2----2-0-2-|-2-2-2-3-3-3-5-5---||
 {eot}
 |
 | Gtr II
 | E E E Q E E E H E E E E E E E Q E E E E E E E E E E E
 
 {sot}
 ||-----------------|--------------|----------------|-------------------||
 ||o----------------|--------------|----------------|-5-5-5-6-6-6-8-8--o||
 ||-----------------|--------------|----------------|-4-4-4-5-5-5-7-7---||
 ||--2-2-2----2-0-2-|------2-2-2---|-2-0-2----2-0-2-|-2-2-2-3-3-3-5-5---||
 ||o-2-2-2----2-0-2-|------2-2-2---|-2-0-2----2-0-2-|-2-2-2-3-3-3-5-5--o||
 ||--2-2-2----2-0-2-|------2-2-2---|-2-0-2----2-0-2-|-2-2-2-3-3-3-5-5---||
 {eot}
 
 Verses I & II
 [E5]Gtr I[D5E5][D5E5][D5E5][F5][G5]
 E E E Q E E E H E E E E E E E Q E E E E E E E E E E E
 | | | | | | | | | | | | | | | | | | | | | | |
 [/] [/] [/] [/] [/] [/] [/] [/] [/] [/] [/][/][/][/][/][/][/][/][/][/][/][/][/]
 Gtr II
 E E E Q E E E H E E E E E E E Q E E E E E E E E E E E
 
 {sot}
 |----------------|--------------|----------------|-----------------|
 |----------------|--------------|----------------|-5-5-5-6-6-6-8-8-|
 |----------------|--------------|----------------|-4-4-4-5-5-5-7-7-|
 |-2-2-2----2-0-2-|------2-2-2---|-2-0-2----2-0-2-|-2-2-2-3-3-3-5-5-|
 |-2-2-2----2-0-2-|------2-2-2---|-2-0-2----2-0-2-|-2-2-2-3-3-3-5-5-|
 |-2-2-2----2-0-2-|------2-2-2---|-2-0-2----2-0-2-|-2-2-2-3-3-3-5-5-|
 {eot}
 
 [E5]E E E Q E [D5E5]E E H E E E E E [D5E5]E E Q E [D5E5]E E E E E [F5]E E E [G5]E E
 | | | | | | | | | | | | | | | | | | | | | | |
 [/] [/] [/] [/] [/] [/] [/] [/] [/] [/] [/][/][/][/][/][/][/][/][/][/][/][/][/]
 E E E Q E E E H E E E E E E E Q E E E E E E E E E E E
 
 {sot}
 |----------------|--------------|----------------|-----------------|
 |----------------|--------------|----------------|-5-5-5-6-6-6-8-8-|
 |----------------|--------------|----------------|-4-4-4-5-5-5-7-7-|
 |-2-2-2----2-0-2-|------2-2-2---|-2-0-2----2-0-2-|-2-2-2-3-3-3-5-5-|
 |-2-2-2----2-0-2-|------2-2-2---|-2-0-2----2-0-2-|-2-2-2-3-3-3-5-5-|
 |-2-2-2----2-0-2-|------2-2-2---|-2-0-2----2-0-2-|-2-2-2-3-3-3-5-5-|
 {eot}
 
 [E5]E E E Q E [D5E5]E E H E E E E E [D5E5]E E Q E [D5E5]E E E E E [F5]E E E [G5]E E
 | | | | | | | | | | | | | | | | | | | | | | |
 [/] [/] [/] [/] [/] [/] [/] [/] [/] [/] [/][/][/][/][/][/][/][/][/][/][/][/][/]
 E E E Q E E E H E E E E E E E Q E E E E E E E E E E E
 
 {sot}
 |----------------|--------------|----------------|-----------------|
 |----------------|--------------|----------------|-5-5-5-6-6-6-8-8-|
 |----------------|--------------|----------------|-4-4-4-5-5-5-7-7-|
 |-2-2-2----2-0-2-|------2-2-2---|-2-0-2----2-0-2-|-2-2-2-3-3-3-5-5-|
 |-2-2-2----2-0-2-|------2-2-2---|-2-0-2----2-0-2-|-2-2-2-3-3-3-5-5-|
 |-2-2-2----2-0-2-|------2-2-2---|-2-0-2----2-0-2-|-2-2-2-3-3-3-5-5-|
 {eot}
 
 To Coda
 [E5]E E E Q E [D5E5]E E H E E E E E [D5E5]E E Q E [D5E5]E E E E E [F5]E E E [G5]E E
 | | | | | | | | | | | | | | | | | | | | | | |
 [/] [/] [/] [/] [/] [/] [/] [/] [/] [/] [/][/][/][/][/][/][/][/][/][/][/][/][/]
 E E E Q E E E H E E E E E E E Q E E E E E E E E E E E
 
 {sot}
 |----------------|--------------|----------------|-----------------||
 |----------------|--------------|----------------|-5-5-5-6-6-6-8-8-||
 |----------------|--------------|----------------|-4-4-4-5-5-5-7-7-||
 |-2-2-2----2-0-2-|------2-2-2---|-2-0-2----2-0-2-|-2-2-2-3-3-3-5-5-||
 |-2-2-2----2-0-2-|------2-2-2---|-2-0-2----2-0-2-|-2-2-2-3-3-3-5-5-||
 |-2-2-2----2-0-2-|------2-2-2---|-2-0-2----2-0-2-|-2-2-2-3-3-3-5-5-||
 {eot}
 
 Chorus I
 [D5]Gtrs I, II[E5]
 [E] [E] [E] [E] [E] [E] [E] [E] [E] [E] [E] [E] [E] [E] [E] [E] [E] [E] [E] [E] [E] [E] [E] [E] [E] [E] [E] [E] [E] [E] [E] [E] 
 {sot}
 ||------------------|-----------------|-----------------|-------------------|
 ||o-----------------|-----------------|-----------------|-------------------|
 ||------------------|-----------------|-----------------|-------------------|
 ||--0-0-0-0-0-0-0-0-|-0-0-0-0-0-0-0-0-|-2-2-2-2-2-2-2-2-|-2-2-2-2-2-2-2-2S==|
 ||o-0-0-0-0-0-0-0-0-|-0-0-0-0-0-0-0-0-|-2-2-2-2-2-2-2-2-|-2-2-2-2-2-2-2-2S==|
 ||--0-0-0-0-0-0-0-0-|-0-0-0-0-0-0-0-0-|-2-2-2-2-2-2-2-2-|-2-2-2-2-2-2-2-2S==|
 {eot}
 
 [C5] 
 [E] [E] [E] [E] [E] [E] [E] [E] [E] [E] [E] [E] [E] [E] [E] [E] 
 {sot}
 |-------------------------|--------------------------|
 |-------------------------|--------------------------|
 |-------------------------|--------------------------|
 |-10-10-10-10-10-10-10-10-|-10-10-10-10-10-10-10-10\-|
 |-10-10-10-10-10-10-10-10-|-10-10-10-10-10-10-10-10\-|
 |-10-10-10-10-10-10-10-10-|-10-10-10-10-10-10-10-10\-|
 {eot}
 
 [A5] 
 [E] [E] [E] [E] [E] [E] [E] [E] [E] [E] [E] [E] [E] [E] [E] [E] 
 {sot}
 |-----------------|------------------||
 |-----------------|-----------------o||
 |-----------------|------------------||
 |-7-7-7-7-7-7-7-7-|-7-7-7-7-7-7-7-7--||
 |-7-7-7-7-7-7-7-7-|-7-7-7-7-7-7-7-7-o||
 |-7-7-7-7-7-7-7-7-|-7-7-7-7-7-7-7-7--||
 {eot}
 
 D.S. al Coda
 [D5]Q H. H [E5D5E5]E E Q [D5]Q H. H [E5]E E E E
 
 {sot}
 |------------|-------------|------------|--------------||
 |------------|-------------|------------|--------------||
 |------------|-------------|------------|--------------||
 |-0----------|------2-0-2--|-0----------|------2-2-2---||
 |-0----------|------2-0-2--|-0----------|------2-2-2---||
 |-0----------|------2-0-2--|-0----------|------2-2-2---||
 {eot}
 
 Chorus II
 &
 [D5] [E5]
 [E] [E] [E] [E] [E] [E] [E] [E] [E] [E] [E] [E] [E] [E] [E] [E] [E] [E] [E] [E] [E] [E] [E] [E] [E] [E] [E] [E] [E] [E] [E] [E] 
 {sot}
 |-----------------|-----------------|-----------------|------------------|
 |-----------------|-----------------|-----------------|------------------|
 |-----------------|-----------------|-----------------|------------------|
 |-0-0-0-0-0-0-0-0-|-0-0-0-0-0-0-0-0-|-2-2-2-2-2-2-2-2-|-2-2-2-2-2-2-2-2S=|
 |-0-0-0-0-0-0-0-0-|-0-0-0-0-0-0-0-0-|-2-2-2-2-2-2-2-2-|-2-2-2-2-2-2-2-2S=|
 |-0-0-0-0-0-0-0-0-|-0-0-0-0-0-0-0-0-|-2-2-2-2-2-2-2-2-|-2-2-2-2-2-2-2-2S=|
 {eot}
 
 [C5] 
 [E] [E] [E] [E] [E] [E] [E] [E] [E] [E] [E] [E] [E] [E] [E] [E] 
 {sot}
 |-------------------------|--------------------------|
 |-------------------------|--------------------------|
 |-------------------------|--------------------------|
 |-10-10-10-10-10-10-10-10-|-10-10-10-10-10-10-10-10\-|
 |-10-10-10-10-10-10-10-10-|-10-10-10-10-10-10-10-10\-|
 |-10-10-10-10-10-10-10-10-|-10-10-10-10-10-10-10-10\-|
 {eot}
 
 [A5] [C5] 
 [E] [E] [E] [E] [E] [E] [E] [E] [E] [A] [E] [E] [E] [E] [E] [E] [E] 
 {sot}
 |-----------------|--------------------------|
 |-----------------|--------------------------|
 |-----------------|--------------------------|
 |-7-7-7-7-7-7-7-7-|-7-7s10-10-10-10-10-10-10-|
 |-7-7-7-7-7-7-7-7-|-7-7s10-10-10-10-10-10-10-|
 |-7-7-7-7-7-7-7-7-|-7-7s10-10-10-10-10-10-10-|
 {eot}
 
 [D5] [E5]
 [E] [E] [E] [E] [E] [E] [E] [E] [E] [E] [E] [E] [E] [E] [E] [E] [E] [E] [E] [E] [E] [E] [E] [E] [E] [E] [E] [E] [E] [E] [E] [E] 
 {sot}
 |-----------------|-----------------|-----------------|-----------------|
 |-----------------|-----------------|-----------------|-----------------|
 |-----------------|-----------------|-----------------|-----------------|
 |-0-0-0-0-0-0-0-0-|-0-0-0-0-0-0-0-0-|-2-2-2-2-2-2-2-2-|-2-2-2-2-2-2-2-2-|
 |-0-0-0-0-0-0-0-0-|-0-0-0-0-0-0-0-0-|-2-2-2-2-2-2-2-2-|-2-2-2-2-2-2-2-2-|
 |-0-0-0-0-0-0-0-0-|-0-0-0-0-0-0-0-0-|-2-2-2-2-2-2-2-2-|-2-2-2-2-2-2-2-2-|
 {eot}
 
 [F5] [D5]
 [E] [E] [E] [E] [E] [E] [E] [E] [E] [E] [E] [E] [E] [E] [E] [E] [E] [E] [E] [E] [E] [E] [E] [E] [E] [E] [E] [E] [E] [E] [E] [E] 
 {sot}
 |-----------------|-----------------|-----------------|-----------------||
 |-----------------|-----------------|-----------------|-----------------||
 |-----------------|-----------------|-----------------|-----------------||
 |-3-3-3-3-3-3-3-3-|-3-3-3-3-3-3-3-3-|-0-0-0-0-0-0-0-0-|-0-0-0-0-0-0-0-0-||
 |-3-3-3-3-3-3-3-3-|-3-3-3-3-3-3-3-3-|-0-0-0-0-0-0-0-0-|-0-0-0-0-0-0-0-0-||
 |-3-3-3-3-3-3-3-3-|-3-3-3-3-3-3-3-3-|-0-0-0-0-0-0-0-0-|-0-0-0-0-0-0-0-0-||
 {eot}
 
 Intrumental Section I
 [G5A5] [G5A5] [G5A5] [G5A5] [G5A5] [G5][A5][G5A5][G5A5][BbA5G5A5]
 Gtr II[2/4]
 E H.. W W H
 |
 x
 
 Gtr I
 [E] [E] [E] [E] [E] [E] [E] [E] [E] [E] [E] [E] [E] [E] [E] [E] [E] [E] [E] [E] [E] [E] [E] [E] [E] [E] [E] [E] 
 {sot}
 |-------------------|-----------------|-----------------|----------|
 |-------------------|-----------------|-----------------|----------|
 |-------------------|-----------------|-----------------|----------|
 |-5-7---7-5-7-7-5-7-|-7-5-7-7-5-7-7-5-|-7-7-5-7-7-5-7-7-|-8-7-5-7--|
 |-5-7---7-5-7-7-5-7-|-7-5-7-7-5-7-7-5-|-7-7-5-7-7-5-7-7-|-8-7-5-7--|
 |-5-7---7-5-7-7-5-7-|-7-5-7-7-5-7-7-5-|-7-7-5-7-7-5-7-7-|-8-7-5-7--|
 {eot}
 
 [A5G5A5] [G5A5] [G5] [A5] [G5A5] [G5A5] [D5][E5][D5E5F5][G5]
 [4/4] Gtr I[4/4][1/4]
 [E]| [E]| [E]| [E]| [E]| [E]| [E]| [E]| [E]| [E]| [E]| [E]| [E]| [E]| [E]| [E]| [E]| [E]| [+E] | [E]| [E]| [E]| [E]| [E]| [E] [E]|
 [/] [/] [/] [/] [/] [/] [/] [/] [/] [/] [/] [/] [/] [/] [/] [/] [/][/][/][/][/][/][/][/][/]
 Gtr II
 W W E E +E E E E E E E E
 
 {sot}
 |-----------------|-----------------|-------------------|------|
 |-----------------|-----------------|-------------------|------|
 |-----------------|-----------------|-------------------|------|
 |-----------------|-----------------|---0-(0)-2-2-0-2-3-|---5--|
 |-----------------|-----------------|---0-(0)-2-2-0-2-3-|---5--|
 |-----------------|-----------------|---0-(0)-2-2-0-2-3-|---5--|
 {eot}
 
 [G5] [A5] [G5A5] [G5A5] [G5A5] [G5A5] [G5][A5][G5A5][G5A5][BbG5][A5]
 [4/4] [2/4]
 [+E] | [E]| [E]| [E]| [E]| [E]| [E]| [E]| [E]| [E]| [E]| [E]| [E]| [E]| [E]| [E]| [E]| [E]| [E]| [E]| [E]| [E]| [E]| [E]| [E]| [E]| [+E] | [E]|
 [/] [/] [/] [/] [/] [/] [/] [/] [/] [/] [/] [/] [/] [/] [/][/][/][/][/][/][/][/][/][/][/][/][/][/]
 [+E] [E] [E] [E] [E] [E] [E] [E] [E] [E] [E] [E] [E] [E] [E] [E] [E] [E] [E] [E] [E] [E] [E] [E] [E] [E] [E] [E] 
 {sot}
 ||--------------------|-----------------|-----------------|-----------|
 ||o-------------------|-----------------|-----------------|-----------|
 ||------9-9-9-9-9-9-9-|-9-9-9-9-9-9-9-9-|-9-9-9-9-9-9-9-9-|-9-9--9-9--|
 ||--(5)-x-x-x-x-x-x-x-|-x-x-x-x-x-x-x-x-|-x-x-x-x-x-x-x-x-|-x-x--x-x--|
 ||o-(5)-7-7-7-7-7-7-7-|-7-7-7-7-7-7-7-7-|-7-7-7-7-7-7-7-7-|-7-7--7-7--|
 ||--(5)---------------|-----------------|-----------------|-----------|
 {eot}
 
 1.
 [A5G5A5] [G5A5] [G5] [A5] [G5A5] [G5A5] [D5][E5][D5E5F5][G5]
 [4/4] [4/4][1/4]
 [E]| [E]| [E]| [E]| [E]| [E]| [E]| [E]| [E]| [E]| [E]| [E]| [E]| [E]| [E]| [E]| [E]| [E]| [+E] | [E]| [E]| [E]| [E]| [E]| [E] [E]|
 [/] [/] [/] [/] [/] [/] [/] [/] [/] [/] [/] [/] [/] [/] [/] [/] [/][/][/][/][/][/][/][/][/]
 [E] [E] [E] [E] [E] [E] [E] [E] [E] [E] [E] [E] [E] [E] [E] [E] [E] [E] [+E] [E] [E] [E] [E] [E] [E] [E] 
 {sot}
 |-----------------|-----------------|-------------------|-------||
 |-----------------|-----------------|-------------------|------o||
 |-9-9-9-9-9-9-9-9-|-9-9-9-9-9-9-9-9-|-9-----------------|-------||
 |-x-x-x-x-x-x-x-x-|-x-x-x-x-x-x-x-x-|-x-0-(0)-2-2-0-2-3-|---5---||
 |-7-7-7-7-7-7-7-7-|-7-7-7-7-7-7-7-7-|-7-0-(0)-2-2-0-2-3-|---5--o||
 |-----------------|-----------------|---0-(0)-2-2-0-2-3-|---5---||
 {eot}
 
 Instrumental Section II
 2.
 [A5D5] [E5] [D5E5F5] [D5] [E5][D5E5F5]
 [4/4] Gtr I
 [E] [E] [+E] [E] [E] [E] [E] [E] [+E] [E] [+E] [E] [E] [E] [E] [E] 
 {sot}
 |-------------------|-------------------------|
 |-------------------|-------------------------|
 |-------------------|-------------------------|
 |-7-0-(0)-2-2-0-2-3-|-(3)b3.5-0-(0)-2-2-0-2-3-|
 |-7-0-(0)-2-2-0-2-3-|-(3)b3.5-0-(0)-2-2-0-2-3-|
 |-7-0-(0)-2-2-0-2-3-|-(3)b3.5-0-(0)-2-2-0-2-3-|
 {eot}
 |
 | Gtr II
 | E E +E E E E E E +E E +E E E E E E
 
 {sot}
 |-------------------|-------------------------|
 |-------------------|-------------------------|
 |-9-----------------|-------------------------|
 |-x-0-(0)-2-2-0-2-3-|-(3)b3.5-0-(0)-2-2-0-2-3-|
 |-7-0-(0)-2-2-0-2-3-|-(3)b3.5-0-(0)-2-2-0-2-3-|
 |---0-(0)-2-2-0-2-3-|-(3)b3.5-0-(0)-2-2-0-2-3-|
 {eot}
 
 [D5] [E5] [D5E5F5] [D5][E5][D5E5F5]
 [+E] [E] [+E] [E] [E] [E] [E] [E] [+E] [E] [+E] [E] [E] [E] [E] [E] 
 {sot}
 |-------------------------|-------------------------|
 |-------------------------|-------------------------|
 |-------------------------|-------------------------|
 |-(3)b3.5-0-(0)-2-2-0-2-3-|-(3)b3.5-0-(0)-2-2-0-2-3-|
 |-(3)b3.5-0-(0)-2-2-0-2-3-|-(3)b3.5-0-(0)-2-2-0-2-3-|
 |-(3)b3.5-0-(0)-2-2-0-2-3-|-(3)b3.5-0-(0)-2-2-0-2-3-|
 {eot}
 |
 | +E E +E E E E E E +E E +E E E E E E
 
 {sot}
 |-------------------------|-------------------------|
 |-------------------------|-------------------------|
 |-------------------------|-------------------------|
 |-(3)b3.5-0-(0)-2-2-0-2-3-|-(3)b3.5-0-(0)-2-2-0-2-3-|
 |-(3)b3.5-0-(0)-2-2-0-2-3-|-(3)b3.5-0-(0)-2-2-0-2-3-|
 |-(3)b3.5-0-(0)-2-2-0-2-3-|-(3)b3.5-0-(0)-2-2-0-2-3-|
 {eot}
 
 [G5D5]Gtrs I, [E5]II[D5E5F5][D5][E5][D5E5F5]
 [E] [E] [+E] [E] [E] [E] [E] [E] [+E] [E] [+E] [E] [E] [E] [E] [E] 
 {sot}
 ||--------------------|-------------------------|
 ||o-------------------|-------------------------|
 ||--------------------|-------------------------|
 ||--5-0-(0)-2-2-0-2-3-|-(3)b3.5-0-(0)-2-2-0-2-3-|
 ||o-5-0-(0)-2-2-0-2-3-|-(3)b3.5-0-(0)-2-2-0-2-3-|
 ||--5-0-(0)-2-2-0-2-3-|-(3)b3.5-0-(0)-2-2-0-2-3-|
 {eot}
 
 +E [D5]E +E [E5]E E [D5E5F5]E E E +E [D5]E +E [E5]E E [D5E5F5]E E E 3x
 
 {sot}
 |-------------------------|---------------------------||
 |-------------------------|--------------------------o||
 |-------------------------|---------------------------||
 |-(3)b3.5-0-(0)-2-2-0-2-3-|-(3)b3.5-0-(0)-2-2-0-2-3---||
 |-(3)b3.5-0-(0)-2-2-0-2-3-|-(3)b3.5-0-(0)-2-2-0-2-3--o||
 |-(3)b3.5-0-(0)-2-2-0-2-3-|-(3)b3.5-0-(0)-2-2-0-2-3---||
 {eot}
 
 [G5D5] [E5] 
 W [5/4] W
 E E +H. +E E +W
 
 {sot}
 |--------------|------------------||
 |--------------|------------------||
 |--------------|------------------||
 |-5-0-(0)------|-(0)-2-(2)--------||
 |-5-0-(0)------|-(0)-2-(2)--------||
 |-5-0-(0)------|-(0)-2-(2)--------||
 {eot}
 
 Outro
 [Fmaj7] 
 [4/4] Gtr I
 [E]| [E]| [E]| [E]| [E]| [E]| [E]| [E]| [E]| [E]| [E]| [E]| [E]| [E]| [E]| [E]|
 [/] [/] [/] [/] [/] [/] [/] [/] [/] [/] [/][/][/][/][/][/]
 Gtr II
 [E] [E] [E] [E] [E] [E] [E] [E] [E] [E] [E] [E] [E] [E] [E] [E] 
 {sot}
 |---------------------------|--------------------------|
 |---------------------------|--------------------------|
 |-(12)-12-12-12-12-12-12-12-|-12-12-12-12-12-12-12-12--|
 |--(x)--x--x--x--x--x--x--x-|--x--x--x--x--x--x--x--x--|
 |--10--10-10-10-10-10-10-10-|-10-10-10-10-10-10-10-10--|
 |---------------------------|--------------------------|
 {eot}
 
 [E]| [E]| [E]| [E]| [E]| [E]| [E]| [E]| [E]| [E]| [E]| [E]| [E]| [E]| [E]| [E]|
 [/] [/] [/] [/] [/] [/] [/] [/] [/] [/] [/] [/][/][/][/][/]
 [E] [E] [E] [E] [E] [E] [E] [E] [E] [E] [E] [E] [E] [E] [E] [E] 
 {sot}
 |-------------------------|-------------------------|
 |-------------------------|-------------------------|
 |-12-12-12-12-12-12-12-12-|-12-12-12-12-12-12-12-12-|
 |--x--x--x--x--x--x--x--x-|--x--x--x--x--x--x--x--x-|
 |-10-10-10-10-10-10-10-10-|-10-10-10-10-10-10-10-10-|
 |-------------------------|-------------------------|
 {eot}
 
 [E]| [E]| [E]| [E]| [E]| [E]| [E]| [E]| [E]| [E]| [E]| [E]| [E]| [E]| [E]| [E]|
 [/] [/] [/] [/] [/] [/] [/] [/] [/] [/] [/] [/][/][/][/][/]
 [E] [E] [E] [E] [E] [E] [E] [E] [E] [E] [E] [E] [E] [E] [E] [E] 
 {sot}
 |-------------------------|-------------------------|
 |-------------------------|-------------------------|
 |-12-12-12-12-12-12-12-12-|-12-12-12-12-12-12-12-12-|
 |--x--x--x--x--x--x--x--x-|--x--x--x--x--x--x--x--x-|
 |-10-10-10-10-10-10-10-10-|-10-10-10-10-10-10-10-10-|
 |-------------------------|-------------------------|
 {eot}
 
 [E]| [E]| [E]| [E]| [E]| [E]| [E]| [E]| [E]| [E]| [E]| [E]| [E]| [E]| [E]| [E]|
 [/] [/] [/] [/] [/] [/] [/] [/] [/] [/] [/] [/][/][/][/][/]
 [E] [E] [E] [E] [E] [E] [E] [E] [E] [E] [E] [E] [E] [E] [E] [E] 
 {sot}
 |-------------------------|-------------------------|
 |-------------------------|-------------------------|
 |-12-12-12-12-12-12-12-12-|-12-12-12-12-12-12-12-12-|
 |--x--x--x--x--x--x--x--x-|--x--x--x--x--x--x--x--x-|
 |-10-10-10-10-10-10-10-10-|-10-10-10-10-10-10-10-10-|
 |-------------------------|-------------------------|
 {eot}
 
 [E]| [E]| [E]| [E]| [E]| [E]| [E]| [E]| [E]| [E]| [E]| [E]| [E]| [E]| [E]| [E]|
 [/] [/] [/] [/] [/] [/] [/] [/] [/] [/] [/] [/][/][/][/][/]
 [E] [E] [E] [E] [E] [E] [E] [E] [E] [E] [E] [E] [E] [E] [E] [E] 
 {sot}
 |-------------------------|-------------------------|
 |-------------------------|-------------------------|
 |-10-10-10-10-10-10-10-10-|-10-10-10-10-10-10-10-10-|
 |--x--x--x--x--x--x--x--x-|--x--x--x--x--x--x--x--x-|
 |--8--8--8--8--8--8--8--8-|--8--8--8--8--8--8--8--8-|
 |-------------------------|-------------------------|
 {eot}
 
 [E]| [E]| [E]| [E]| [E]| [E]| [E]| [E]| [E]| [E]| [E]| [E]| [E]| [E]| [E]| [E]|
 [/] [/] [/] [/] [/] [/] [/] [/] [/] [/] [/][/][/][/][/][/]
 [E] [E] [E] [E] [E] [E] [E] [E] [E] [E] [E] [E] [E] [E] [E] [E] 
 {sot}
 |--------------------------|-------------------------|
 |----/18-18-18-18-18-18-18-|-18-18-18-18-18-18-18-18-|
 |-10---x--x--x--x--x--x--x-|--x--x--x--x--x--x--x--x-|
 |--x-/15-15-15-15-15-15-15-|-15-15-15-15-15-15-15-15-|
 |--8-----------------------|-------------------------|
 |--------------------------|-------------------------|
 {eot}
 
 [E]| [E]| [E]| [E]| [E]| [E]| [E]| [E]| [E]| [E]| [E]| [E]| [E]| [E]| [E]| [E]|
 [/] [/] [/] [/] [/] [/] [/] [/] [/] [/] [/] [/][/][/][/][/]
 [E] [E] [E] [E] [E] [E] [E] [E] [E] [E] [E] [E] [E] [E] [E] [E] 
 {sot}
 |-------------------------|-------------------------|
 |-18-18-18-18-18-18-18-18-|-18-18-18-18-18-18-18-18-|
 |--x--x--x--x--x--x--x--x-|--x--x--x--x--x--x--x--x-|
 |-15-15-15-15-15-15-15-15-|-15-15-15-15-15-15-15-15-|
 |-------------------------|-------------------------|
 |-------------------------|-------------------------|
 {eot}
 
 [E]| [E]| [E]| [E]| [E]| [E]| [E]| [E]| [E]| [E]| [E]| [E]| [E]| [E]| [E]| [E]|
 [/] [/] [/] [/] [/] [/] [/] [/] [/] [/] [/] [/][/][/][/][/]
 [E] [E] [E] [E] [E] [E] [E] [E] [E] [E] [E] [E] [E] [E] [E] [E] 
 {sot}
 |-------------------------|--------------------------|
 |-18-20-20-20-20-20-20-20-|-20-20-20-20-20-20-20-20\-|
 |--x--x--x--x--x--x--x--x-|--x--x--x--x--x--x--x--x--|
 |-15-17-17-17-17-17-17-17-|-17-17-17-17-17-17-17-17\-|
 |-------------------------|--------------------------|
 |-------------------------|--------------------------|
 {eot}
 
 E E E E E E E E E E E E E E E E [D5E5]E E E [D5E5F5]E E E Q
 | | | | | | | | | | | | | | | | | | | | | |
 [/] [/] [/] [/] [/] [/] [/] [/] [/] [/] [/] [/][/][/][/][/][/][/][/][/][/][/]
 E E E E E E E E E E E E E E E E E E E E E E Q
 
 {sot}
 |-------------------------|-------------------------|----------------*|
 |-------------------------|-------------------------|----------------*|
 |-10-10-10-10-10-10-10-10-|-10-10-10-10-10-10-10-10-|----------------*|
 |--x--x--x--x--x--x--x--x-|--x--x--x--x--x--x--x--x-|-0-2-2-0-2-3----*|
 |--8--8--8--8--8--8--8--8-|--8--8--8--8--8--8--8--8-|-0-2-2-0-2-3----*|
 |-------------------------|-------------------------|-0-2-2-0-2-3----*|
 {eot}
 
 Duration Legend
 
 {sot}
 ---------------
 W - whole; H - half; Q - quarter; E - 8th; S - 16th; T - 32nd; X - 64th; a - acciaccatura
 {eot}
 + - note tied to previous; . - note dotted; .. - note double dotted
 Uncapitalized letters represent notes that are staccato (1/2 duration)
 Irregular groupings are notated above the duration line
 Duration letters will always appear directly above the note/fret number it represents the
 duration for. Duration letters with no fret number below them represent rests. Multi-
 bar rests are notated in the form Wxn, where n is the number of bars to rest for. Low
 melody durations appear below the staff
 
 Tablature Legend
 
 {sot}
 ----------------
 {eot}
 h - hammer-on
 p - pull-off
 b - bend
 pb - pre-bend
 r - bend release (if no number after the r, then release immediately)
 /\ - slide into or out of (from/to "nowhere")
 s - legato slide
 S - shift slide
 - natural harmonic
 (n) - artificial harmonic
 n(n) - tapped harmonic
 ~ - vibrato
 tr - trill
 T - tap
 TP - trem. picking
 PM - palm muting
 \n/ - tremolo bar dip; n = amount to dip
 \n - tremolo bar down
 n/ - tremolo bar up
 /n\ - tremolo bar inverted dip
 = - hold bend; also acts as connecting device for hammers/pulls
 - volume swell (louder/softer)
 x - on rhythm slash represents muted slash
 o - on rhythm slash represents single note slash
 
 Misc Legend
 
 {sot}
 -----------
 {eot}
 | - bar
 || - double bar
 ||o - repeat start
 o|| - repeat end
 *| - double bar (ending)
 : - bar (freetime)
 $ - Segno
 & - Coda
 Tempo markers - = BPM(8/16=s8/s16), where s8 = swing 8ths, s16 = swing 16ths