Song Information for S-H-A-R-P

Song Title:S-H-A-R-P
Artist:Fastidios, Los
Hits:29
{t:S-H-A-R-P}
 {st:Los Fastidios}
 
 
 {sot}
 -----------------------------------------------------
 {eot}
 
 Band: Los Fastidios
 
 
 {sot}
 -----------------------------------------------------
 {eot}
 
 CHORDS:
 
 [A5] [F5] [C5] [G5] 
 {sot}
 e|-----------------|
 B|-----------------|
 G|----------5------|
 D|--7---3---5---5--|
 A|--7---3---3---5--|
 E|--5---1-------3--|
 {eot}
 
 (n.c.) = no chord
 \ = slide down
 ~ = vibrato
 
 Standard tuning
 
 226 BPM
 
 
 {sot}
 -----------------------------------------------------
 {eot}
 
 INTRO:
 
 (bass enters)
 
 
 {sot}
 A5 F5 G|-----------------|
 Skin! E Punk! D|-5---5-5---5-5---|
 C5 G5* ---> A|-5---5-5---5-5---|
 Skin! E Punk! E|-3---0-3---0-3---|
 {eot}
 
 A5 F5 C5 G5 (strum once & mute)
 
 VERSE 1:
 
 Il [A5]lungo cor[F5]teo -[C5] si sta muo[G5]vendo
 [A5] Ci vedi [F5]arrivare in[C5]fondo alla [G5]via
 [A5] Senti gli s[F5]logan st[C5]iamo can[G5]tando
 [A5] Siamo accer[F5]chiati [C5]dalla poli[G5]zia
 
 [A5]Wo-o-[F5]oh [C5]wo-o-o-[G5]oh
 A5 F5 C5 G5*
 Wo-o-oh wo-o-o-oh
 
 VERSE 2:
 
 [A5] E puoi ve[F5]dere i [C5]nostri stri[G5]scioni
 [A5] L'elmo tro[F5]iano si [C5]alza su di [G5]noi
 [A5] Senti il ru[F5]more dei [C5]nostri scar[G5]poni
 [A5] A fate [F5]largo [C5]ai ribelli [G5]oi
 
 CHORUS:
 
 [C5]Ess[C5]ae [C5]uh-[C5]kuh [C5]uh [C5]errae [C5]pe (S-H-A-R-P)
 [F5]Skin e Punk con[G5]tro il razzismo
 
 [C5]Ess[C5]ae [C5]uh-[C5]kuh [C5]uh [C5]errae [C5]pe
 [F5]Per le vie del[G5]la città 
 
 [C5]Ess[C5]ae [C5]uh-[C5]kuh [C5]uh [C5]errae [C5]pe
 La [F5]voce dei ri[G5]belli
 
 [C5]Ess[C5]ae [C5]uh-[C5]kuh [C5]uh [C5]errae [C5]pe
 La [F5]forza una real[G5]tà 
 
 [A5]Essae [F5]uh-kuh [C5]uh errae [G5]pe
 [A5]Essae [F5]uh-kuh [C5]uh errae [G5]pe
 
 INTERLUDE:
 
 A5 F5 C5 G5 (strum once & mute)
 
 SOLO (play twice):
 
 [A5] [F5] 
 {sot}
 e|-----------------|-----------------|
 B|-5---3-------3---|-5---3-------3---|
 G|-------5---------|-------5---------|
 D|-----------------|-----------------|
 {eot}
 
 [C5] [G5] 
 {sot}
 e|-----------------|-----------------|
 B|-5-----5-----6---|-3~~~~~~~~~~~~~~-|
 G|-----------------|-----------------|
 D|-----------------|-----------------|
 {eot}
 
 [A5] [F5] 
 {sot}
 e|-----------------|-----------------|
 B|-5---3-------3---|-5---3-------3---|
 G|-------5---------|-------5---------|
 D|-----------------|-----------------|
 {eot}
 
 [C5] [G5] 
 {sot}
 e|-3---------------|-----------------|
 B|-------6-----5---|-3---5-6---5-3---|
 G|-----------------|-----------------|
 D|-----------------|-----------------|
 {eot}
 
 [G5] [A5] 
 {sot}
 |-----------------|--------
 Second time play: |-3---5-6---5-3\1-|--------
 |-----------------|-2~~~~~~
 |-----------------|--------
 {eot}
 
 (Repeat VERSE 1) (Il lungo corteo ...)
 
 (Repeat VERSE 2) (E puoi vedere ...)
 
 (Repeat CHORUS) (S-H-A-R-P ...)
 
 ENDING:
 
 A5 (hold)
 
 (n.c.)
 Essae uh-kuh uh errae pe
 
 (pick scr*pe)
 Essae uh-kuh uh errae pe
 
 [A5]Essae [F5]uh-kuh [C5]uh errae [G5]pe
 [A5]Essae [F5]uh-kuh [C5]uh errae [G5]pe - skinhead!
 
 A5 (hold)
 
 
 {sot}
 -----------------------------------------------------
 {eot}