Song Information for Lay Me Down

Song Title:Lay Me Down
Artist:Dirty Heads, The
Hits:755
{t:Lay Me Down}
 {st:The Dirty Heads}
 
 Tabbed by: (Take a Guess)
 Email: victorclark010@yahoo.com
 
 Tuning: eBGDAE
 
 Well, first off props to those who helped me get this together...
 |littlestein09| I borrowed his layout, though I modified it a bit.
 |TheOmegaKitten| Had guitar Solo 1 nailed.
 |dudewithaguitar77(Youtube)| Pro-ness on Riffs and Solo 2.
 
 Alrighty, this is seemingly correct. The one thing that is difficult to put
 down is the strum pattern. It's simple enough though, you just have to
 listen to the song and play along to get the feel. Well hope you enjoy.
 If you see any errors, or wana tell me how awsome I am, shoot me an email
 or something.
 
 
 Chords:
 
 [G] [Am] [Em] [B] [Am/E] [Bm/F#] 
 {sot}
 e|-------3-------5-------7-------7-------x-------x-------|
 B|-------3-------5-------8-------7-------x-------x-------|
 G|-------4-------5-------9-------8-------5-------7-------|
 D|-------5-------7-------9-------9-------7-------9-------|
 A|-------5-------7-------7-------9-------7-------9-------|
 E|-------3-------5-------7-------7-------x-------x-------|
 {eot}
 
 Intro:
 
 [G] 
 {sot}
 Ho-woah-oo-oh-ho-ho-oo-woah- no
 {eot}
 [Am]Hoo-oo-woo-oo-oo
 [G] 
 {sot}
 Ho-oh-oo-woah-oh-oh-oo-woah-no- oo
 {eot}
 [Am-Am]Hoo-woo-
 
 
 Verse 1:
 
 [Em]Well this is how it starts two l[Am]overs in the dark
 [B]On the run from the one that they call Sheriff Sparks
 [Em]Six guns by the side and bullets[Am] ?round their waist
 [B]Two shots to the sky signal sound for the chase
 
 Guitar Riff 1: (Starts at ?The safe??, Ends at ??his lungs?.)
 
 {sot}
 e|------------------------------------------|
 B|------------------------------------------|
 G|------------------------------------------|
 D|-------9----------------------9-----------|
 A|---7-7---7------9-9-9-----7-7---7---------|
 E|------------5-7--------7----------5-7-----|
 {eot}
 
 [Em]The safe was nearly empty and th[Am]ey were nearly free
 [B]But was seen by the wood eye of the mean Billy Greene
 [Em]And he screamed at the top of hi[Am]s lungs ?they?re on the run!
 [B]It?s the two outsiders grab yer holsters and yer guns!?
 
 
 Chorus 1:
 
 [G]I said I wish that we could [Am]stay here
 But I fear our time has [G]come
 Oh we can ride out in[Am] the darkness
 Chasing the risin[G]g sun
 We gotta pack our bags this [Am]instant
 We?re heading southbound to t[G]he next town
 And if we arrive there[Am] so safely
 Baby you ca[Am-Am]n lay me[G-G-G] down[Am]
 Lay me [G]do[G]wn[G][Am]
 Lay me [G]do[G]wn[G][Am]
 Lay me [G]do[G]wn[G][Am]
 
 Verse 2:
 
 [Em]Well it?s the story of the two a[Am]lways on the move
 [B]They got nothing left to lose ?cept their guns and they wounds
 [Em]Now they?re crossing borders she[Am]riff?s posse on their tail
 
 {sot}
 B (Pause---------->)
 {eot}
 They rather die together than be stuck up in a cell
 
 Guitar Riff 2: (Starts at ?They drank??, Ends at ??then he said?.)
 
 {sot}
 e|----------------------------|
 B|----------------------------|
 G|----------------------------|
 D|-------9--------------------|
 A|---7-7---7------9-9-9-------|
 E|------------5-7--------7----|x4
 {eot}
 
 [Em]They drank up all the whiskey an[Am]d they partied every night
 [B]Like it could be the last the bounty said to shoot on sight
 [Em]So they chased the endless summe[Am]r though it came with a price
 [B]They wouldn?t stop running ?til they found a paradise
 [Em]But the Sheriff finally found ?e[Am]m with his eyes seeing red
 [B]So the lovers had to shoot him down and fill him full of lead
 [Em]They were finally free to find a[Am] place to lay their head
 [B]And when they finally did he looked at her and then he said:
 
 Chorus 2:
 
 [G]I said I wish that we could [Am]stay here
 But I fear our time has [G]come
 Oh we can ride out in[Am] the darkness
 Chasing the risin[G]g sun
 We gotta pack our bags this [Am]instant
 We?re heading southbound to t[G]he next town
 And if we arrive there[Am] so safely
 Baby you ca[Am-Am]n lay me[G-G-G] down[Am]
 Lay me [G]do[G]wn[G][Am]
 Lay me [G]do[G]wn[G][Am]
 Lay me [G]do[G]wn[G][Am]
 
 Bridge 1: (Play with the beat, don?t try to get it right where I put the G?s;
 (Am/E)/(Bm/F#) = slide from Am/E to Bm/F#, listen to the song to get it
 right.)
 
 Well you?re m[G]y g[G]reen [G]eyed girl and I?ve[(Am/E)/(Bm/F#)] been running round with you
 It?s the [G]afternoon a[G]nd we [G]got noth[(Am/E)/(Bm/F#)]ing left to do
 So wipe the d[G]irt o[G]ff or[G] take yer[(Am/E)/(Bm/F#)] shirt off
 And we should [G]go hi[G]t the[G] cantina we[(Am/E)/(Bm/F#)] got work off
 I said it?s h[G]ot out[G]side l[G]et me go [(Am/E)/(Bm/F#)]swimming in your eyes
 We?ve been ru[G]nning f[G]or a wh[G]ile why?oncha l[(Am/E)/(Bm/F#)]ay down make me smile
 [G]I could [G]never ask f[G]or nothing [(Am/E)/(Bm/F#)]better than this
 It?s just te[G]quila and the be[G]ach that?s w[G]hy it?s salty when we kiss
 
 
 Chorus 2:
 
 [G]I said I wish that we could [Am]stay here
 But I fear our time has [G]come
 Oh we can ride out in[Am] the darkness
 Chasing the risin[G]g sun
 We gotta pack our bags this [Am]instant
 We?re heading southbound to t[G]he next town
 And if we arrive there[Am] so safely
 Baby you ca[Am-Am]n lay me[G-G-G] down[Am]
 Lay me [G]do[G]wn[G][Am]
 Lay me [G]do[G]wn[G][Am]
 Lay me [G]do[G]wn[G][Am]
 
 Solo's: G Am
 
 Guitar Solo 1:
 
 {sot}
 e|--------------------------------------|
 B|--------------------------------------|
 G|--------------------------------------|
 D|------5-5h7--5-5h7--7/9-7-5--5h7-5----|
 A|---7-----------------------7----------|
 E|--------------------------------------|x4
 {eot}
 
 Guitar Solo 2:
 
 {sot}
 e|----------7/10-10-10-8-7--------------------------------------->
 B|-------------------------10-8-10-10/12-10p8/10---10-10/12/10--->
 G|--------------------------------------------------------------->
 D|--------------------------------------------------------------->
 A|--------------------------------------------------------------->
 E|--------------------------------------------------------------->
 e>------------------10-12/15#-17-17b19r19--15------15------------------|
 B>-8h10p8-----8-8/12-------------------------15-17---17-15-------------|
 G>-9-------7h9---------------------------------------------16-14-------|
 D>---------------------------------------------------------------17----|
 A>---------------------------------------------------------------------|
 E>---------------------------------------------------------------------|
 {eot}