Song Information for K-Hole

Song Title:K-Hole
Artist:CocoRosie
Hits:18
{t:K-Hole}
 {st:CocoRosie}
 
 Play this patterns for the chords:
 
 [am] [C] [dm] 
 {sot}
 |------12-------12-------|------12-------12-------|------17-------17-------|
 |---13-------13-------13-|---13-------13-------13-|---18-------18-------18-|
 |14-------14-------14----|12-------12-------12----|19-------19-------19----|
 |------------------------|------------------------|------------------------|
 |------------------------|------------------------|------------------------|
 |------------------------|------------------------|------------------------|
 {eot}
 
 [C2] 
 {sot}
 |------20-------20-------|
 |---20-------20-------20-|
 |21-------21-------21----|
 |------------------------|
 |------------------------|
 |------------------------|
 {eot}
 Note: C2 is an arbitrary name just to distinguish it from the other
 C-Chord.
 
 [am] [C] [am] [C] 
 [dm] [C] [dm] [C] 
 [am]Tiny spirit [C]in a k-hole
 [am]Bloated like s[C]oggy cereal
 [dm]God will come an[C2]d wash away
 [am]Our tattoos and [C]all the cocaine
 [dm]And all of the a[C2]borted babies
 [am]Will turn into [C]little bambies
 
 [am] [C] [am] [C] 
 [dm] [C] [dm] [C] 
 Wounded river push along
 Searching for that desert song
 And mozart's requiem will play
 On tiny spearkers made of clay
 Tell my mother that i love her
 Martin luther you're an angel
 
 Charming monkey saunter swagger
 Drunken donkey limbs disjointed
 Your chest is a petting zoo
 Mexican pony fucked up shoes
 I dreamt one thousand basketball courts
 Nothing holier than sports
 
 Interlude (2x):
 
 [dm] [G] 
 {sot}
 |17-------17-----17-------17-|---15-------15-----15-------15-|
 |---18--------------18-------|------15--------------15-------|
 |------19--------------19----|----------16--------------16---|
 |----------------------------|-------------------------------|
 |----------------------------|-------------------------------|
 |----------------------------|-------------------------------|
 {eot}
 
 [am] 
 {sot}
 |12-------12-------12-|
 |---13-------13-------|
 |------14-------14----|
 |---------------------|
 |---------------------|
 |---------------------|
 {eot}
 
 Dragonfly kiss your tail
 Precious robot built so frail
 Universe of milk and ember
 Your hot kiss in mid december
 What's god name i can't remember
 Trough the crack eye lovely weather
 
 comments, corrections:
 geekfactor@jagermail.com