Song Information for SMA

Song Title:SMA
Artist:Chevelle
Hits:143
{t:SMA}
 {st:Chevelle}
 
 Chevelle - Sma
 Submitted By: Aaron
 EMail: aaronsguitar@msn.com
 
 Tuning> Dropped D> DAdGBE (tune low E down to D)
 
 Intro> x2
 
 {sot}
 E|----------------------------------|-3------------|
 B|----------------------------------|-3------------|
 G|----------------------------------|-5---------5--|
 d|----------------------------------|-5------------|
 A|----------------------------------|-3------------|
 D|-0-0-0-0-3-3-3-3-3-3-3-3-3-3-3-5--|--------------|
 {eot}
 
 x4
 
 {sot}
 d|-3p0-3p0-3p0-3-x-3p0-3p0-3p0-5---|
 A|-3p0-3p0-3p0-3-x-3p0-3p0-3p0-5---|
 D|-3p0-3p0-3p0-3-x-3p0-3p0-3p0-5---|
 {eot}
 
 x3
 
 {sot}
 d|-0-0--8--8-8-8-10-|-6-6-6-6-6-6-6-6-3-3-3-3-/-15-|
 A|-0-0--8--8-8-8-10-|-6-6-6-6-6-6-6-6-3-3-3-3-/-15-|
 D|-0-0--8--8-8-8-10-|-6-6-6-6-6-6-6-6-3-3-3-3-/-15-|
 {eot}
 
 Verse Chords>
 [D5] [Bb5] [C5] [G#5] [F5] 
 {sot}
 d|-0---8---10---|-6---3---|
 A|-0---8---10---|-6---3---|
 D|-0---8---10---|-6---3---|
 {eot}
 x3 m m
 
 Interlude>
 
 {sot}
 d|-4-4-5-4-5-4--0-0-x-0-|
 A|-4-4-5-4-5-4--0-0-x-0-|
 D|-4-4-5-4-5-4--0-0-x-0-|
 {eot}
 
 Key>
 m = palm mute
 \ = slide down / = slide up
 x = silence strings