Song Information for Mary, Please

Song Title:Mary, Please
Artist:Brian Jonestown Massacre, The
Hits:205
{t:Mary, Please}
 {st:The Brian Jonestown Massacre}
 
 Brian Jonestown Massacre - Mary Please
 
 Chords - (E A D G B E )
 D(10 12 12 11 10 10)
 C(8 10 10 9 8 8 )
 [F(1] [3] [3] [2] [1] [1] [)] 
 [G(3] [5] [5] [4] [3] [3] [)] 
 [Gsus4(3] C#(9 [5]11 [5]11 [5]10 [3]9 [3]9 [)])
 
 Strumming Patter Verse:
 
 {sot}
 D~ C~ F--F--F-F-F-F-F-F-F--G--G-G-Gsus4-G-G--G-G-G-|
 {eot}
 
 Strumming pattern Chorus:
 
 {sot}
 D--D--D-D-D-C-C--C-C-C--F--F--F-F-C--C--G--G-G-Gsus4-G-G--G-G-G---G--G-G-G-Gsus4-G-
 G--Gsus4-Gsus4-Gsus4-Gsus4--|
 {eot}
 
 1st Chorus Ending:
 
 {sot}
 D--D--D-D-D-C-C--C-C-C--F--F--F-F-C--C--G--G-G-Gsus4-G-G--G-G-G-G--C#-C#-C#--C#--C#
 {eot}
 
 Intro
 
 
 {sot}
 E|-10-10-x--x-x-x-x-x-x--x-x-|
 B|-10-10-x--x-x-x-x-x-x--x-x-|
 G|-11-11-x--x-x-x-x-x-x--x-x-|
 D|-12-12-x--x-x-x-x-x-x--x-x-|
 A|-12-12-x--x-x-x-x-x-x--x-x-| x4
 E|-10-10-x--x-x-x-x-x-x--x-x-|
 {eot}
 
 Then
 
 Solo (While other guitar plays Chorus)
 
 
 {sot}
 E|-------------------------------------------------------------------------|
 B|-------------------------------------------------------------------------|
 G|----10-12b-12b-12b-10----------10----10-12b-12b-12b-10-------------------|
 D|-12-------------------12-10-12----12-------------------12-10-12----------|
 A|---------------------------------------------------------------10b-10b-8-|
 E|-------------------------------------------------------------------------|
 E|-------------------------------------|
 B|-------------------------------------|
 G|-------------------------------------|
 D|-------------------------------------|
 A|--------------------8----8-10b-10b-8-|
 E|-10-8h10-10-10-8-10---10-------------|
 E|----------------------------------------10-------13b-13b-13b-13b-13b-10--10|
 B|-------------------------------10-13-10---10-13------------------------13--|
 G|----10-12b-12b-12b-10------------------------------------------------------|
 D|-12-------------------12-10-12---------------------------------------------|
 A|---------------------------------------------------------------------------|
 E|---------------------------------------------------------------------------|
 E|-16b-16b-16b-16-13b------------|
 B|---------------------15-13-15--|
 G|-------------------------------|
 D|-------------------------------|
 A|-------------------------------|
 E|-------------------------------|
 {eot}
 
 [D] I know it seems insane
 [C] I'll never feel ashamed of you[F][G][Gsus4][G]
 
 [D] I'm tired of silly games
 [C] I cannot waste away the truth[F][G][Gsus4][G]
 
 [D] I lay in bed all the day
 [C] There's nothing more to say to you[F][G][Gsus4][G]
 
 [D] If I look for change
 [C] I know it takes a day or two [F] Away from yo[G]u[Gsus4][G]
 
 [D]Sadly [C]I remain[F] in lo[C]ve with y[G]ou[Gsus4][G][G][Gsus4][G]
 
 [D]All my te[C]ars and f[F]ears I gai[C]ned from you[G][Gsus4][G][C#]
 
 [D] I will not waste away,
 [C] For even half a day or two[F][G][Gsus4][G]
 
 [D] And if you run away
 [C] There's no lookin after you [F] And that's the t[G]ruth[Gsus4][G]
 
 [D]Sadly [C]I remain[F] in lov[C]e with you[G][Gsus4][G][G][Gsus4][G][Gsus4]
 
 [D]I'll do[C] anything [F]you ask[C] me to,[G] [Gsus4] [G] [G] Stay tru[Gsus4]e[G][Gsus4]
 
 Solo (While other guitar plays chorus)
 
 
 {sot}
 E|-------------------------------------------------------------------------|
 B|-------------------------------------------------------------------------|
 G|----10-12b-12b-12b-10----------10----10-12b-12b-12b-10-------------------|
 D|-12-------------------12-10-12----12-------------------12-10-12----------|
 A|---------------------------------------------------------------10b-10b-8-|
 E|-------------------------------------------------------------------------|
 E|-------------------------------------|
 B|-------------------------------------|
 G|-------------------------------------|
 D|-------------------------------------|
 A|--------------------8----8-10b-10b-8-|
 E|-10-8h10-10-10-8-10---10-------------|
 E|----------------------------------------10-------13b-13b-13b-13b-13b-10--10|
 B|-------------------------------10-13-10---10-13------------------------13--|
 G|----10-12b-12b-12b-10------------------------------------------------------|
 D|-12-------------------12-10-12---------------------------------------------|
 A|---------------------------------------------------------------------------|
 E|---------------------------------------------------------------------------|
 E|-16b-16b-16b-16-13b------------|
 B|---------------------15-13-15--|
 G|-------------------------------|
 D|-------------------------------|
 A|-------------------------------|
 E|-------------------------------|
 {eot}
 
 Chord part
 
 E|-3~--1~--|
 B|-3~--1~--|
 G|-4~--2~--|
 D|-5~--3~--|
 A|-5~--3~--|
 E|-3~--1~--|
 
 Solo (While other guitar plays chorus)
 
 
 {sot}
 E|-------------------------------------------------------------------------|
 B|-------------------------------------------------------------------------|
 G|----10-12b-12b-12b-10----------10----10-12b-12b-12b-10-------------------|
 D|-12-------------------12-10-12----12-------------------12-10-12----------|
 A|---------------------------------------------------------------10b-10b-8-|
 E|-------------------------------------------------------------------------|
 E|-------------------------------------|
 B|-------------------------------------|
 G|-------------------------------------|
 D|-------------------------------------|
 A|--------------------8----8-10b-10b-8-|
 E|-10-8h10-10-10-8-10---10-------------|
 E|----------------------------------------10-------13b-13b-13b-13b-13b-10--10|
 B|-------------------------------10-13-10---10-13------------------------13--|
 G|----10-12b-12b-12b-10------------------------------------------------------|
 D|-12-------------------12-10-12---------------------------------------------|
 A|---------------------------------------------------------------------------|
 E|---------------------------------------------------------------------------|
 E|-16b-16b-16b-16-13b------------|
 B|---------------------15-13-15--|
 G|-------------------------------|
 D|-------------------------------|
 A|-------------------------------|
 E|-------------------------------|
 {eot}
 
 Ending Part of solo
 
 
 {sot}
 E|-------------------------------------------------------------------------|
 B|-------------------------------------------------------------------------|
 G|----10-12b-12b-12b-10----------10----10-12b-12b-12b-10-------------------|
 D|-12-------------------12-10-12----12-------------------12-10-12----------|
 A|---------------------------------------------------------------10b-10b-8-|
 E|-------------------------------------------------------------------------|
 E|-------------------------------------|
 B|-------------------------------------|
 G|-------------------------------------|
 D|-------------------------------------|
 A|--------------------8----8-10b-10b-8-|
 E|-10-8h10-10-10-8-10---10-------------|
 {eot}
 Notice the change here
 
 {sot}
 E|----------------------------------------10-------13b-13b-13b-13b-13b-10--10|
 B|-------------------------------10-13-10---10-13------------------------13--|
 G|----10-12-12b-12b-12b-10---------------------------------------------------|
 D|-12------------------------------------------------------------------------|
 A|---------------------------------------------------------------------------|
 E|---------------------------------------------------------------------------|
 E|-16b-16b-16b-16-13b-------------------------|
 B|---------------------15-13-15--15-15-13--12~|
 G|--------------------------------------------|
 D|--------------------------------------------|
 A|--------------------------------------------|
 E|--------------------------------------------|
 {eot}
 
 Happy Playing.